Войти:  Facebook Google Twitter Vk Yandex Mail.ru
PrimaNota.ru - самый крупный в мире бесплатный архив песенных текстов, аккордов, табулатур и нот


Cramps - Caveman - текст песни, табы

Печатать
Лучшая metal-группа Петербурга

Caveman

  • аккорды, текст

Авторы: Lux Interior, Ivy Rorschach

[Intro]

  E
e|-------------------------------------|-------------------------------------|
B|-------------------------------------|-------------------------------------|
G|-------------------------------------|-------------------------------------|
D|-------------------------------------|-------------------------------------|
A|-------------------------------------|-------------------------------------|
E|-0-0-3--3-0-0-3--3-0-0-3--3-0-0-3--3-|-0-0-3--3-0-0-3--3-0-0-3--3-0-0-3--3-|


[Verse 1]

  E
e|-------------------------------------|-------------------------------------|
B|-------------------------------------|-------------------------------------|
G|-------------------------------------|-------------------------------------|
D|-------------------------------------|-------------------------------------|
A|-------------------------------------|-------------------------------------|
E|-0-0-3--3-0-0-3--3-0-0-3--3-0-0-3--3-|-0-0-3--3-0-0-3--3-0-0-3--3-0-0-3--3-|
   Hey man         Fourth floor          Caveman         Last door

  E
e|-------------------------------------|-------------------------------------|
B|-------------------------------------|-------------------------------------|
G|-------------------------------------|-------------------------------------|
D|-------------------------------------|-------------------------------------|
A|-------------------------------------|-------------------------------------|
E|-0-0-3--3-0-0-3--3-0-0-3--3-0-0-3--3-|-0-0-3--3-0-0-3--3-0-0-3--3-0-0-3--3-|

  A                                     E
e|-------------------------------------|-------------------------------------|
B|-------------------------------------|-------------------------------------|
G|-------------------------------------|-------------------------------------|
D|-------------------------------------|-------------------------------------|
A|-0-0-3--3-0-0-3--3-0-0-3--3-0-0-3--3-|-------------------------------------|
E|-------------------------------------|-0-0-3--3-0-0-3--3-0-0-3--3-0-0-3--3-|

  B                  A                  E
e|-------------------------------------|-------------------------------------|
B|-------------------------------------|-------------------------------------|
G|-------------------------------------|-------------------------------------|
D|-------------------------------------|-------------------------------------|
A|-2-2-2--2-2-2-2--2-0-0-0--0-0-0-0--0-|-------------------------------------|
E|-------------------------------------|-0-0-3--3-0-0-3--3-0-0-3--3-0-0-3--3-|


[Verse 2]

  E   
e|-------------------------------------|-------------------------------------|
B|-------------------------------------|-------------------------------------|
G|-------------------------------------|-------------------------------------|
D|-------------------------------------|-------------------------------------|
A|-------------------------------------|-------------------------------------|
E|-0-0-3--3-0-0-3--3-0-0-3--3-0-0-3--3-|-0-0-3--3-0-0-3--3-0-0-3--3-0-0-3--3-|
   Cave-train      Downtown              Caveman         Get down

  A                                     E
e|-------------------------------------|-------------------------------------|
B|-------------------------------------|-------------------------------------|
G|-------------------------------------|-------------------------------------|
D|-------------------------------------|-------------------------------------|
A|-0-0-3--3-0-0-3--3-0-0-3--3-0-0-3--3-|-------------------------------------|
E|-------------------------------------|-0-0-3--3-0-0-3--3-0-0-3--3-0-0-3--3-|

  B                  A                  E
e|-------------------------------------|-------------------------------------|
B|-------------------------------------|-------------------------------------|
G|-------------------------------------|-------------------------------------|
D|-------------------------------------|-------------------------------------|
A|-2-2-2--2-2-2-2--2-0-0-0--0-0-0-0--0-|-------------------------------------|
E|-------------------------------------|-0-0-3--3-0-0-3--3-0-0-3--3-0-0-3--3-|
                                                                      Uh


[Verse 3]

  E
e|-------------------------------------|-------------------------------------|
B|-------------------------------------|-------------------------------------|
G|-------------------------------------|-------------------------------------|
D|-------------------------------------|-------------------------------------|
A|-------------------------------------|-------------------------------------|
E|-0-0-3--3-0-0-3--3-0-0-3--3-0-0-3--3-|-0-0-3--3-0-0-3--3-0-0-3--3-0-0-3--3-|
   Look man        Make tool             Caveman         No fool        No

  A                                     E
e|-------------------------------------|-------------------------------------|
B|-------------------------------------|-------------------------------------|
G|-------------------------------------|-------------------------------------|
D|-------------------------------------|-------------------------------------|
A|-0-0-3--3-0-0-3--3-0-0-3--3-0-0-3--3-|-------------------------------------|
E|-------------------------------------|-0-0-3--3-0-0-3--3-0-0-3--3-0-0-3--3-|

  B                  A                  E
e|-------------------------------------|-------------------------------------|
B|-------------------------------------|-------------------------------------|
G|-------------------------------------|-------------------------------------|
D|-------------------------------------|-------------------------------------|
A|-2-2-2--2-2-2-2--2-0-0-0--0-0-0-0--0-|-------------------------------------|
E|-------------------------------------|-0-0-3--3-0-0-3--3-0-0-3--3-0-0-3--3-|


[Verse 4]

  E
e|-------------------------------------|-------------------------------------|
B|-------------------------------------|-------------------------------------|
G|-------------------------------------|-------------------------------------|
D|-------------------------------------|-------------------------------------|
A|-------------------------------------|-------------------------------------|
E|-0-0-3--3-0-0-3--3-0-0-3--3-0-0-3--3-|-0-0-3--3-0-0-3--3-0-0-3--3-0-0-3--3-|
   Beat rock       Hunt meat             Caveman         Rock beat   Ha-hahaha 

  A                                     E
e|-------------------------------------|-------------------------------------|
B|-------------------------------------|-------------------------------------|
G|-------------------------------------|-------------------------------------|
D|-------------------------------------|-------------------------------------|
A|-0-0-3--3-0-0-3--3-0-0-3--3-0-0-3--3-|-------------------------------------|
E|-------------------------------------|-0-0-3--3-0-0-3--3-0-0-3--3-0-0-3--3-|

  B                  A                  E
e|-------------------------------------|-------------------------------------|
B|-------------------------------------|-------------------------------------|
G|-------------------------------------|-------------------------------------|
D|-------------------------------------|-------------------------------------|
A|-2-2-2--2-2-2-2--2-0-0-0--0-0-0-0--0-|-------------------------------------|
E|-------------------------------------|-0-0-3--3-0-0-3--3-0-0-3--3-0-0-3--3-|


[Solo]

  E
e|0-0-0-------0-0-0-------0-0-0-------0-0-0------|0-0-0-------0-0-0-------0-0-0-------0-0-0------|
B|4-4-4-0-0-0-4-4-4-0-0-0-4-4-4-0-0-0-4-4-4-0-0-0|4-4-4-0-0-0-4-4-4-0-0-0-4-4-4-0-0-0-4-4-4-0-0-0|
G|------3-3-3-------3-3-3-------3-3-3-------3-3-3|------3-3-3-------3-3-3-------3-3-3-------3-3-3|
D|-----------------------------------------------|-----------------------------------------------|
A|-----------------------------------------------|-----------------------------------------------|
E|-----------------------------------------------|-----------------------------------------------|

  A
e|----------------------------------------------------------|
B|----------------------------------------------------------|
G|----------------------------------------------------------|
D|----------------------------------------------------------|
A|--0--0--3----3--0--0--3----3--0--0--3----3--0--0--3----3--|
E|----------------------------------------------------------|
 
  E                                               B                       A
e|0-0-0-------0-0-0-------0-0-0-------0-0-0------|-----------------------------------------------|
B|4-4-4-0-0-0-4-4-4-0-0-0-4-4-4-0-0-0-4-4-4-0-0-0|-----------------------------------------------|
G|------3-3-3-------3-3-3-------3-3-3-------3-3-3|-----------------------------------------------|
D|-----------------------------------------------|-----------------------------------------------|
A|-----------------------------------------------|--2-2-2----2-2-2-2----2-0-0-0----0-0-0-0----0--|
E|-----------------------------------------------|-----------------------------------------------|

  E
e|----------------------------------------------------------|
B|----------------------------------------------------------|
G|----------------------------------------------------------|
D|----------------------------------------------------------|
A|----------------------------------------------------------|
E|--0--0--3----3--0--0--3----3--0--0--3----3--0--0--3----3--|


[Verse 5]

  E
e|-------------------------------------|-------------------------------------|
B|-------------------------------------|-------------------------------------|
G|-------------------------------------|-------------------------------------|
D|-------------------------------------|-------------------------------------|
A|-------------------------------------|-------------------------------------|
E|-0-0-3--3-0-0-3--3-0------0-3--3-3-3-|-0-0-3--3-0-0-3--3-0------0-3--3-3-3-|
   Caveman      Say  ooh                 Caveman      Say  ooh

  E
e|-------------------------------------|-------------------------------------|
B|-------------------------------------|-------------------------------------|
G|-------------------------------------|-------------------------------------|
D|-------------------------------------|-------------------------------------|
A|-------------------------------------|-------------------------------------|
E|-0-0-3--3-0-0-3--3-0------0-3--3-3-3-|-0-0-3--3-0-0-3--3-0------0-3--3-3-3-|
   Caveman      Say   ooh ooh            Caveman      Say           Ha-hahaha
  
  A                                     E
e|-------------------------------------|-------------------------------------|
B|-------------------------------------|-------------------------------------|
G|-------------------------------------|-------------------------------------|
D|-------------------------------------|-------------------------------------|
A|-0-0-3--3-0-0-3--3-0-0-3--3-0-0-3--3-|-------------------------------------|
E|-------------------------------------|-0-0-3--3-0-0-3--3-0-0-3--3-0-0-3--3-|

  B                  A                  E
e|-------------------------------------|-------------------------------------|
B|-------------------------------------|-------------------------------------|
G|-------------------------------------|-------------------------------------|
D|-------------------------------------|-------------------------------------|
A|-2-2-2--2-2-2-2--2-0-0-0--0-0-0-0--0-|-------------------------------------|
E|-------------------------------------|-0-0-3--3-0-0-3--3-0-0-3--3-0-0-3--3-|

  E
e|-------------------------------------|
B|-------------------------------------|
G|-------------------------------------|
D|-------------------------------------|
A|-------------------------------------|
E|-0-0-3--3-0-0-3--3-0-0-3--3-0--------|   
https://primanota.ru/cramps/caveman-chords.htm

Привет, гитарист!

Тебе подарок от сайта PrimaNota.ru

Забрать подарок
ВАМ ПОДАРКИ ОТ ПРОЕКТА
"ГИТАРНАЯ РЕВОЛЮЦИЯ"