PrimaNota.ru - самый крупный в мире бесплатный архив песенных текстов, аккордов, табулатур и нот


Cramps - Garbageman - текст песни, таба, видео

Регистрация Запомнить меня
Войти через:  Facebook Google Twitter Vk Yandex Mail.ru

Cramps - Garbageman - текст песни, таба, видео

Печатать
Просмотров: 181
Лучшая metal-группа Петербурга
Авторы: Erick Purkhiser, Kristy Wallace

[Intro]

Song begins with a snare drum fill
followed by eight bass drum beats
e|-----------------|-----------------|-----------------|-----------------|-----------------|
B|-----------------|-----------------|-----------------|-----------------|-----------------|
G|-----------------|-----------------|-----------------|-----------------|-----------------|
D|-----------------|-----------------|-----------------|-----------------|-----------------|
A|-----------------|-----------------|-----------------|-----------------|-----------------|
E|-----------------|-----------------|-0-0-3-3-0-0-3-3-|---0---3-0-0-3-3-|-0-0-3-3-0-0-3-3-|

e|-----------------|
B|-----------------|
G|-----------------|
D|-----------------|
A|-----------------|
E|---0---3-0-0-3-3-|


[Verse 1]

e|-----------------|-----------------|-----------------|-----------------|-----------------|
B|-----------------|-----------------|-----------------|-----------------|-----------------|
G|-----------------|-----------------|-----------------|-----------------|-----------------|
D|-----------------|-----------------|-----------------|-----------------|-----------------|
A|-----------------|-----------------|-----------------|-----------------|-----------------|
E|-0-0-3-3-0-0-3-3-|---0---3-0-0-3-3-|-0-0-3-3-0-0-3-3-|---0---3-0-0-3-3-|-0-0-3-3-0-0-3-3-|

e|-----------------|-----------------|
B|-----------------|-----------------|
G|-----------------|-----------------|
D|-----------------|-----------------|
A|-----------------|-----------------|
E|---0---3-0-0-3-3-|-0---------------|


[Verse 2]

e|-----------------|-----------------|-----------------|-----------------|-----------------|
B|-----------------|-----------------|-----------------|-----------------|-----------------|
G|-----------------|-----------------|-----------------|-----------------|-----------------|
D|-----------------|-----------------|-----------------|-----------------|-----------------|
A|-----------------|-----------------|-----------------|-----------------|-----------------|
E|---------0-0-0-0-|-0-0-3-3-0-0-3-3-|---0---3-0-0-3-3-|-0-0-3-3-0-0-3-3-|---0---3-0-0-3-3-|

e|-----------------|-----------------|-----------------|
B|-----------------|-----------------|-----------------|
G|-----------------|-----------------|-----------------|
D|-----------------|-----------------|-----------------|
A|-----------------|-----------------|-----------------|
E|-0-0-3-3-0-0-3-3-|---0---3-0-0-3-3-|-0---------------|


[Verse 3]

e|-----------------|-----------------|-----------------|-----------------|-----------------|
B|-----------------|-----------------|-----------------|-----------------|-----------------|
G|-----------------|-----------------|-----------------|-----------------|-----------------|
D|-----------------|-----------------|-----------------|-----------------|-----------------|
A|-----------------|-----------------|-----------------|-----------------|-----------------|
E|---------0-0-0-0-|-0-0-3-3-0-0-3-3-|---0---3-0-0-3-3-|-0-0-3-3-0-0-3-3-|---0---3-0-0-3-3-|

e|-----------------|-----------------|-----------------|-----------------|-----------------|
B|-----------------|-----------------|-----------------|-----------------|-----------------|
G|-----------------|-----------------|-----------------|-----------------|-----------------|
D|-----------------|-----------------|-----------------|-----------------|-----------------|
A|-----------------|-----------------|-----------------|-----------------|-----------------|
E|-0-0-3-3-0-0-3-3-|---0---3-0-0-3-3-|-0-0-3-3-0-0-3-3-|---0---3-0-0-3-3-|-0-0-3-3-0-0-3-3-|

e|-----------------|-----------------|-----------------|-----------------|-----------------|
B|-----------------|-----------------|-----------------|-----------------|-----------------|
G|-----------------|-----------------|-----------------|-----------------|-----------------|
D|-----------------|-----------------|-----------------|-----------------|-----------------|
A|-----------------|-----------------|-----------------|-----------------|-----------------|
E|---0---3-0-0-3-3-|-0-0-3-3-0-0-3-3-|---0---3-0-0-3-3-|-0-0-3-3-0-0-3-3-|---0---3-0-0-3-3-|

e|-----------------|-----------------|-----------------|-----------------|-----------------|
B|-----------------|-----------------|-----------------|-----------------|-----------------|
G|-----------------|-----------------|-----------------|-----------------|-----------------|
D|-----------------|-----------------|-----------------|-----------------|-----------------|
A|-----------------|-----------------|-----------------|-----------------|-----------------|
E|-0-0-3-3-0-0-3-3-|---0---3-0-0-3-3-|-0-0-3-3-0-0-3-3-|---0---3-0-0-3-3-|-0-0-3-3-0-0-3-3-|

e|-----------------|-----------------|
B|-----------------|-----------------|
G|-----------------|-----------------|
D|-----------------|-----------------|
A|-----------------|-----------------|
E|---0---3-0-0-3-3-|-0---------------|


[Instrumental]

e|-----------------|-----------------|-----------------|-----------------|-----------------|
B|-----------------|-----------------|-----------------|-----------------|-----------------|
G|-----------------|-----------------|-----------------|-----------------|-----------------|
D|-----------------|-----------------|-----------------|-----------------|-----------------|
A|-----------------|-----------------|-----------------|-----------------|-----------------|
E|---------0-0-0-0-|-0-0-3-3-0-0-3-3-|---0---3-0-0-3-3-|-0-0-3-3-0-0-3-3-|---0---3-0-0-3-3-|

e|-----------------|-----------------|-----------------|-----------------|-----------------|
B|-----------------|-----------------|-----------------|-----------------|-----------------|
G|-----------------|-----------------|-----------------|-----------------|-----------------|
D|-----------------|-----------------|-----------------|-----------------|-----------------|
A|-----------------|-----------------|-----------------|-----------------|-----------------|
E|-0-0-3-3-0-0-3-3-|---0---3-0-0-3-3-|-0-0-3-3-0-0-3-3-|---0---3-0-0-3-3-|-0-0-3-3-0-0-3-3-|

e|-----------------|-----------------|-----------------|
B|-----------------|-----------------|-----------------|
G|-----------------|-----------------|-----------------|
D|-----------------|-----------------|-----------------|
A|-----------------|-----------------|-----------------|
E|---0---3-0-0-3-3-|--0--------------|---------0-0-0-0-|


[Verse 4]

e|-----------------|-----------------|-----------------|-----------------|-----------------|
B|-----------------|-----------------|-----------------|-----------------|-----------------|
G|-----------------|-----------------|-----------------|-----------------|-----------------|
D|-----------------|-----------------|-----------------|-----------------|-----------------|
A|-----------------|-----------------|-----------------|-----------------|-----------------|
E|-0-0-3-3-0-0-3-3-|---0---3-0-0-3-3-|-0-0-3-3-0-0-3-3-|---0---3-0-0-3-3-|-0-0-3-3-0-0-3-3-|

e|-----------------|-----------------|-----------------|-----------------|-----------------|
B|-----------------|-----------------|-----------------|-----------------|-----------------|
G|-----------------|-----------------|-----------------|-----------------|-----------------|
D|-----------------|-----------------|-----------------|-----------------|-----------------|
A|-----------------|-----------------|-----------------|-----------------|-----------------|
E|---0---3-0-0-3-3-|-0-0-3-3-0-0-3-3-|---0---3-0-0-3-3-|-0-0-3-3-0-0-3-3-|---0---3-0-0-3-3-|

e|-----------------|-----------------|-----------------|-----------------|-----------------|
B|-----------------|-----------------|-----------------|-----------------|-----------------|
G|-----------------|-----------------|-----------------|-----------------|-----------------|
D|-----------------|-----------------|-----------------|-----------------|-----------------|
A|-----------------|-----------------|-----------------|-----------------|-----------------|
E|-0-0-3-3-0-0-3-3-|---0---3-0-0-3-3-|-0-0-3-3-0-0-3-3-|---0---3-0-0-3-3-|-0-0-3-3-0-0-3-3-|

e|-----------------|-----------------|-----------------|-----------------|
B|-----------------|-----------------|-----------------|-----------------|
G|-----------------|-----------------|-----------------|-----------------|
D|-----------------|-----------------|-----------------|-----------------|
A|-----------------|-----------------|-----------------|-----------------|
E|---0---3-0-0-3-3-|-0-0-3-3-0-0-3-3-|---0---3-0-0-3-3-|-0---------------|


[Instrumental]

e|-----------------|-----------------|-----------------|-----------------|-----------------|
B|-----------------|-----------------|-----------------|-----------------|-----------------|
G|-----------------|-----------------|-----------------|-----------------|-----------------|
D|-----------------|-----------------|-----------------|-----------------|-----------------|
A|-----------------|-----------------|-----------------|-----------------|-----------------|
E|-0-0-0-0-0-0-0-0-|-0-0-3-3-0-0-3-3-|---0---3-0-0-3-3-|-0-0-3-3-0-0-3-3-|---0---3-0-0-3-3-|

e|-----------------|-----------------|-----------------|-----------------|-----------------|
B|-----------------|-----------------|-----------------|-----------------|-----------------|
G|-----------------|-----------------|-----------------|-----------------|-----------------|
D|-----------------|-----------------|-----------------|-----------------|-----------------|
A|-0-0-3-3-0-0-3-3-|---0---3-0-0-3-3-|-----------------|-----------------|-2-2-5-5-2-2-5-5-|
E|-----------------|-----------------|-0-0-3-3-0-0-3-3-|---0---3-0-0-3-3-|-----------------|

e|-----------------|-----------------|-----------------|-----------------|-----------------|
B|-----------------|-----------------|-----------------|-----------------|-----------------|
G|-----------------|-----------------|-----------------|-----------------|-----------------|
D|-----------------|-----------------|-----------------|-0-1-2-2-2-1-0-0-|-0-1-2-1-2-------|
A|---0---3-0-0-3-3-|-----------------|---------------2-|-----------------|-------------2---|
E|-----------------|-0-0-3-3-0-0-3-3-|---0---3-0-0-3---|-----------------|-----------------|

e|-----------------|-----------------|-----------------|-----------------|-----------------|
B|-----------------|-----------------|-----------------|-----------------|-----------------|
G|-----------------|-----------------|-----------------|-----------------|-----------------|
D|-0-1-2-2-2-1-0-0-|-0-1-2-1-2---0-1-|-----------------|-----------------|-----------------|
A|-----------------|-----------2-----|-----------------|-----------------|-----------------|
E|-----------------|-----------------|-0-0-3-3-0-0-3-3-|---0---3-0-0-3-3-|-0-0-3-3-0-0-3-3-|

e|-----------------|
B|-----------------|
G|-----------------|
D|-----------------|
A|-----------------|
E|---0---3-0-0-3-3-|


[Verse 5]

e|-----------------|-----------------|-----------------|-----------------|-----------------|
B|-----------------|-----------------|-----------------|-----------------|-----------------|
G|-----------------|-----------------|-----------------|-----------------|-----------------|
D|-----------------|-----------------|-----------------|-----------------|-----------------|
A|-----------------|-----------------|-----------------|-----------------|-----------------|
E|-0-0-3-3-0-0-3-3-|---0---3-0-0-3-3-|-0-0-3-3-0-0-3-3-|---0---3-0-0-3-3-|-0-0-3-3-0-0-3-3-|

e|-----------------|-----------------|-----------------|-----------------|-----------------|
B|-----------------|-----------------|-----------------|-----------------|-----------------|
G|-----------------|-----------------|-----------------|-----------------|-----------------|
D|-----------------|-----------------|-----------------|-----------------|-----------------|
A|-----------------|-----------------|-----------------|-----------------|-----------------|
E|---0---3-0-0-3-3-|-0-0-3-3-0-0-3-3-|---0---3-0-0-3-3-|-0-0-3-3-0-0-3-3-|---0---3-0-0-3-3-|

e|-----------------|-----------------|-----------------|-----------------|
B|-----------------|-----------------|-----------------|-----------------|
G|-----------------|-----------------|-----------------|-----------------|
D|-----------------|-----------------|-----------------|-----------------|
A|-----------------|-----------------|-----------------|-----------------|
E|-0-0-3-3-0-0-3-3-|---0---3-0-0-3-3-|-0-0-3-3-0-0-3-3-|---0---3-0-0-3-3-|


[Outro]

e|-----------------|-----------------|-----------------|-----------------|-----------------|
B|-----------------|-----------------|-----------------|-----------------|-----------------|
G|-----------------|-----------------|-----------------|-----------------|-----------------|
D|-----------------|-----------------|-----------------|-----------------|-----------------|
A|-----------------|-----------------|-----------------|-----------------|-----------------|
E|-0-0-3-3-0-0-3-3-|---0---3-0-0-3-3-|-0-0-3-3-0-0-3-3-|---0---3-0-0-3-3-|-0-0-3-3-0-0-3-3-|

e|-----------------|-----------------|
B|-----------------|-----------------|
G|-----------------|-----------------|
D|-----------------|-----------------|
A|-----------------|-----------------|
E|---0---3-0-0-3-3-|-0---------------|
Добавлено: 24.05.2018
Другие материалы по этой песне:
  • Аккорды и текст

Страница создана 26.06.2012
https://primanota.ru/cramps/garbageman-chords.htm
Привет, Гость.
Предлагаем пройти революционный курс по гитаре.
Подарок от PrimaNota.Ru, забирай!