» 
 » 
Toss The Feathers



Corrs - Toss The Feathers - табы

Чайковский в рок-аранжировке! Очень необычно, послушай!
----------------------------------------------------------------------------------------------------------------
                  Toss the Feathers - Suitable for Violin and Mandolin (The Corrs Version)
----------------------------------------------------------------------------------------------------------------
Tabbed by: Phelim McGowan

I couldn't find this version anywhere so I tabbed it myself.

Hope this helps folks out there.

Tuning:G,D,A,E

PART 1 (Played 4 Times)

E|-----------------------------------------------------------------------|
A|------0-------0-2-3---------------0-------0-5-5-2-3-0-----------0------|
D|0-2-0---0-2-0-------5-2---2-0-2-0---0-2-0-------------5-2-0-2-0---0-2-0|
G|------------------------5----------------------------------------------|


E|-------------------------------0------------|
A|0-2-3-0--------3-0-2---0-023-5---5-3-0------|
D|--------5-2-2--------5-----------------5-2-0|
G|--------------------------------------------|

The end of Part 1 is played differently at the end the 4th time - just before Part 2:

E|-------------------------------0----------|
A|0-2-3-0--------3-0-2---0-023-5---5-3-0---3|
D|--------5-2-2--------5-----------------5--|
G|------------------------------------------|



PART 2 (Played 2 Times)

E|---------------0--------0-55-3-5-00-55-3-5-3-0---0-2320-5-2-3202-0-----|
A|0-55-0-55-0-55---5--4-5------------------------5-------------------55-3|
D|-----------------------------------------------------------------------|
G|-----------------------------------------------------------------------|


E|-------------------0----------|
A|0-2-3-0-2---0-0235---5-3-0---3|
D|----------5----------------5--|
G|------------------------------|

The end of Part 2 is played differently at the end the 2nd time:

E|-------------------0------------|
A|0-2-3-0-2---0-0235---5-3-0------|
D|----------5----------------5-2-0|
G|--------------------------------|

Follow this link to hear the tune: https://youtu.be/nzaV97PIX80

****************************************************************************************************************

   

Corrs - Toss The Feathers - ноты

(включить)
Другие композиции этого автора:
Другие материалы по этой песне:

https://primanota.ru/corrs/toss-the-feathers-chords.htm

Привет, гитарист!

Тебе подарок от сайта PrimaNota.ru

Забрать подарок
ВАМ ПОДАРКИ ОТ ПРОЕКТА
"ГИТАРНАЯ РЕВОЛЮЦИЯ"