Войти:  Facebook Google Twitter Vk Yandex Mail.ru
PrimaNota.ru - самый крупный в мире бесплатный архив песенных текстов, аккордов, табулатур и нот


Chris Brown - Beautiful People (feat. Benny Benassi) - аккорды, текст

Печатать
ViraMusic 2019 в Петербурге 4 апреля 2019! Скидка 10%!

Beautiful People

  • аккорды, текст
Тональность: 
0
Проще! Аппликатуры

Авторы: Benny Benassi, Chris Brown, Jean Baptiste, Alle Benassi

Beautiful People
Chris Brown
-------------------------------------------------------------------------------
                Chris Brown ft. Benni Benassi - Beautiful People
-------------------------------------------------------------------------------

Tabbed by: danbell

Tuning: Standard

Capo 2

Chords Set 1:

These chords are D, C and G without the low e string being played.


e|--------0-------0------0------------------------------------------------------|
B|--------3-------3------3------------------------------------------------------|
G|--------2-------0------0------------------------------------------------------|
D|--------0-------2------0------------------------------------------------------|
A|--------0-------3------2------------------------------------------------------|
E|--------x-------0------3------------------------------------------------------|

Chords Set 2:

e|--------2-------3------3------------------------------------------------------|
B|--------3-------3------3------------------------------------------------------|
G|--------2-------0------0------------------------------------------------------|
D|--------0-------2------0------------------------------------------------------|
A|--------0-------3------2------------------------------------------------------|
E|--------x-------0------3------------------------------------------------------|

Use Chords Set 1 for Verses & Chords Set 2 for Chorus.

Intro

e|-------------------------------------------------------------------------------------|
B|-------------------------------------------------------------------------------------|
G|---0---2---2---2---2---2---2---2---2---0---2---4---0---------------------------------|
D|---0---2---2---2---2---2---2---2---2---0---2---4---0---2---2---2---2---2---2---0-----|
A|-------------------------------------------------------2---2---2---2---2---2---0-----|
E|-------------------------------------------------------------------------------------|

Verse


D               C
Everywhere everywhere
G
Everywhere I go
D                    C
Everywhere that i've been
    G
The only thing I see is
             D
Is beautiful people
C          D
 Beautiful people
C          D
 Beautiful people
C          D     C--->
 Beautiful people

 D               C
(ooooh) Don't you know don't you know
 D            C
(ooooh) You're beautiful don't you know
 D               C
(ooooh) Don't you know don't you know
 D               C
(ooooh) Beautiful don't you know know know


Chorus (Should play proper chords through chorus)


D                        C
Live your life live your life
G
Let the love inside
D                        C
It's your life it's your life
G
Got to make it right
D                        C
Take your time take your time
G
Take your sexy time
     D                        C
Dont lose your head lose your head
     G                            D   C-->
Your beauty's deep inside, inside you


                        D        C
Don't let em' bring you down no
                 G
Your beauty is inside you
                       D        C  G-->
Dont let em' bring you down no

                     D          C
Cause you start your life today
                     G
Live any thought you dreamed of

D               C
Everywhere everywhere
G
Everywhere I go
D                    C
Everywhere that i've been
    G
The only thing I see is
             D
Is beautiful people
C          D
 Beautiful people
C          D
 Beautiful people
C          D     C--->
 Beautiful people

 D               C
(ooooh) Don't you know don't you know
 D            C
(ooooh) You're beautiful don't you know
 D               C
(ooooh) Don't you know don't you know
 D               C
(ooooh) Beautiful don't you know know know


(beat break) sustain same chords

D                        C
Take your time take your time
G
Take your sexy time
     D                        C
Dont lose your head lose your head
     G                            D    C-->
Your beauty's deep inside, inside you


                        D        C
Don't let em' bring you down no
                 G
Your beauty is inside you
                       D        C
Dont let em' bring you down no

D               C
Everywhere everywhere
G
Everywhere I go
D                    C
Everywhere that i've been
    G
The only thing I see is
             D
Is beautiful people
C          D
 Beautiful people
C          D
 Beautiful people
C          D     C--->
 Beautiful people

 D               C
(ooooh) Don't you know don't you know
 D            C
(ooooh) You're beautiful don't you know
 D               C
(ooooh) Don't you know don't you know
 D               C
(ooooh) Beautiful don't you know know know


Enjoy :)

Plz rate!

Dublin, Eire.   
https://primanota.ru/chris-brown/beautiful-people-chords.htm

Привет, гитарист!

Тебе подарок от сайта PrimaNota.ru

Забрать подарок
ВАМ ПОДАРКИ ОТ ПРОЕКТА
"ГИТАРНАЯ РЕВОЛЮЦИЯ"