» 
 » 
Disco Heat



Calvin Harris - Disco Heat - бас-таба

Чайковский в рок-аранжировке! Очень необычно, послушай!
Intro:

G|------------------------------7-8--8~888887-|
D|5--5-5-5-3-5--5~5555531--1-1-1--------------|
A|--------------------------------------------|
E|--------------------------------------------|
B|--------------------------------------------|

Main:

G|-----------------------------|
D|5--3--------------------55---|
A|----6--533-------3-56-8------|
E|-31------------------------3-|
B|-----42----1------1--4-6-----|   

Calvin Harris - Disco Heat - ноты

(включить)
Другие композиции этого автора:
Другие материалы по этой песне:
  • Аккорды, текст

https://primanota.ru/calvin-harris/disco-heat-chords.htm

Привет, гитарист!

Тебе подарок от сайта PrimaNota.ru

Забрать подарок
ВАМ ПОДАРКИ ОТ ПРОЕКТА
"ГИТАРНАЯ РЕВОЛЮЦИЯ"