Войти:  Facebook Google Twitter Vk Yandex Mail.ru
PrimaNota.ru - самый крупный в мире бесплатный архив песенных текстов, аккордов, табулатур и нот


Calvin Harris - Ready for the Weekend - текст песни

  • аккорды, текст
  • ноты

Calvin Harris - "Ready For The Weekend"
Tempo - 138BPM

This is a super fun song to play. Let me know if there's any details I missed!

Happy playing!


VERSE
G|----------------------------------------------------------------|
D|2-2---0---0---0---0---------0-2---------------------------------|
A|----------------------3-3-------2-2-----------------------------|
D|--------------------------------------5---5---5---5---5-5-4-2-0-|
 /1'''2'''3'''4'''1'''2'''3'''4'''1'''2'''3'''4'''1'''2'''3'''4'''/

CHORUS
G|----------------------------------------------------------------|
D|------------------------------------------------------------0-2-|
A|----------------1-1---1---1---1-0-0---0---0-------0-----0-3-----|
D|3-3---3---3---3-------------------------------2-------2---------|
 /1'''2'''3'''4'''1'''2'''3'''4'''1'''2'''3'''4'''1'''2'''3'''4'''/


Part          Riff
-----------------------
INTRO       - VERSE  X2
VERSE 1     - VERSE  X4
CHORUS pt1  - CHORUS X4
CHORUS pt2  - CHORUS x4
VERSE 2     - VERSE  X4 (rest for 1st bar on start)
CHORUS pt1  - CHORUS X4 (rest for 1st bar on start, and rest for last bar at end)
CHORUS pt2  - CHORUS x8   
https://primanota.ru/calvin-harris/ready-for-the-weekend-chords.htm

Привет, гитарист!

Тебе подарок от сайта PrimaNota.ru

Забрать подарок
ВАМ ПОДАРКИ ОТ ПРОЕКТА
"ГИТАРНАЯ РЕВОЛЮЦИЯ"