Войти:  Facebook Google Twitter Vk Yandex Mail.ru
PrimaNota.ru - самый крупный в мире бесплатный архив песенных текстов, аккордов, табулатур и нот


Bring Me The Horizon - Wonderful Life - табы

Нотный режим - новая уникальная возможность на нашем сайте!

Bring Me The Horizon - Wonderful Life

Tuning: Drop Cm


[Intro/Verse]

C |-----------------------------------------------------------------|
G |-----------------------------------------------------------------|
D#|-----------------------------------------------------------------|
A#|-----------------------------------------------------------------|
F |--12--0-0-0-0----0-0-0-0-0----12--0-0-0-0--0-0-0-0-0-13h15-0-12--|
A#|-----------------------------------------------------------------|

                                                                        x3
C |--------------------------------------------------------------|
G |--------------------------------------------------------------|
D#|--------------------------------------------------------------| 
A#|--------------------------------------------------------------|
F |--12--0-0-0-0---0-0-0-0-0----12--0-0-0-0--0-0-0-0-0-13p8------|
A#|----------------------------------------------------------12--|

[Hook]

C |----------------------------|      
G |----------------10----10----|
D#|----------------9-----9-----|
A#|----------------------------| x7
F |----------------------------|
A#|--7b--7b--7b-------7-----7--|

C |--------------------------------|
G |----------------10--------------|
D#|----------------9---------------|
A#|--------------------------------|
F |----------------------13p8------|
A#|--7b--7b--7b-------7--------12--|

[Verse]

C |-------------------------------------|
G |-------------------------------------|
D#|-------------------------------------|
A#|---------------------------------15--| x3
F |--12--0-0-0-0--0-0-0-0-0--12p0-0-----|
A#|-------------------------------------|

C |-------------------------------------|
G |-------------------------------------|
D#|-------------------------------------|
A#|-------------------------------------| x5
F |--12--0-0-0-0--0-0-0-0-0--13p8-------|
A#|-------------------------------12----|

[Chorus]

C |------------------------------------------------------------------------------------------------------|
G |----------------10----10----------------10-----10-----------------------------------------------------|
D#|----------------9-----9-----------------9------9------------------------------------------------------|
A#|-----------------------------------------------------0--0--0-----------------3--3--3-----3------3-----|
F |-----------------------------------------------------0--0--0---12-0--12-0----3--3--3------------------|
A#|--7b--7b--7b-------7-----7--7b-7b-7b--------7-----7--0--0--0---12-0--12-0----3--3--3--------3-----3---|

C |----------------------------------------           ---------------------------------------------------|
G |----------------------------------------           ---------------------------------------------------|
D#|----------------------------------------           ---------------------------------------------------|
A#|----------------------------------------           --0--0--0----------------3--3--3------3------3-----|
F |--0-0-15-0-0-15-0-0-15-0-0-15-0-15-0-0-- x2        --0--0--0--12-0--12-0----3--3--3-------------------|
A#|----------------------------------------           --0--0--0--12-0--12-0----3--3--3---------3-----3---|

[Verse 2] (*Starts after bass)
                             *
C |-------------------------------------|
G |-------------------------------------|
D#|-------------------------------------|
A#|-------------------------------------| x4
F |--12--0-0-0-0--0-0-0-0-0--13p8-------|
A#|-------------------------------12----|

[Chorus]

C |------------------------------------------------------------------------------------------------------|
G |----------------10----10----------------10-----10-----------------------------------------------------|
D#|----------------9-----9-----------------9------9------------------------------------------------------|
A#|-----------------------------------------------------0--0--0-----------------3--3--3-----3------3-----|
F |-----------------------------------------------------0--0--0---12-0--12-0----3--3--3------------------|
A#|--7b--7b--7b-------7-----7--7b-7b-7b--------7-----7--0--0--0---12-0--12-0----3--3--3--------3-----3---|

C |----------------------------------------           ---------------------------------------------------|
G |----------------------------------------           ---------------------------------------------------|
D#|----------------------------------------           ---------------------------------------------------|
A#|----------------------------------------           --0--0--0----------------3--3--3------3------3-----|
F |--0-0-15-0-0-15-0-0-15-0-0-15-0-15-0-0-- x2        --0--0--0--12-0--12-0----3--3--3-------------------|
A#|----------------------------------------           --0--0--0--12-0--12-0----3--3--3---------3-----3---|

[Chorus Continued]

C |---------------------------------------------------------------------------|
G |---------------------------------------------------------------------------|
D#|----------------------------------------------5-----5-----------5-----5----|
A#|--7-----10-----10-----5-----9-----9----0-----------------3-----------------| x2
F |--7-------------------5----------------0-----------------3-----------------|
A#|--7---7----7-7----7---5---5---5-5---5--0---0----0-0---0--3---3----3-3---3--|

[Build Up]

C |---------------------------------------------------------------|
G |---------------------------------------------------------------|
D#|---------------------------------------------------------------|
A#|---------------------------------------------------------------|
F |--12--0-0-0-0----0-0-0-0-0----12--0-0-0-0--0-0-0-0-0-13h15-0---|
A#|---------------------------------------------------------------|

                                                                       x2
C |--------------------------------------------------------------|
G |--------------------------------------------------------------|
D#|--------------------------------------------------------------|
A#|--------------------------------------------------------------|
F |--12--0-0-0-0---0-0-0-0-0----12--0-0-0-0--0-0-0-0-0-13p8------|
A#|----------------------------------------------------------12--|

[Build Up Continued]

C |--------------------------------------------------------------------|
G |--------------------------------------------------------------------|
D#|--------------------------------------------------------------------|
A#|--------------------------------------------------------------------|
F |--12--0-0-0-0----0-0-0-0-0--13p8----12--0-0-0-0--0-0-0-0-0-13h15-0--|
A#|---------------------------------12---------------------------------|

C |--------------------------------------------------------------------|
G |--------------------------------------------------------------------|
D#|--------------------------------------------------------------------|
A#|--------------------------------------------------------------------|
F |--12--0-0-0-0----0-0-0-0-0--13p8----12--0-0-0-0--0-0-0-0-0-13p8-----|
A#|---------------------------------12-----------------------------12--|

C |-------------------------------------|
G |-------------------------------------|
D#|-------------------------------------|
A#|-------------------------------------| x3
F |--12--0-0-0-0--0-0-0-0-0--13p8-------|
A#|-------------------------------12----|


[Breakdown]

C |----------------------------|      
G |----------------10----10----|
D#|----------------9-----9-----|
A#|----------------------------| x4
F |----------------------------|
A#|--7b--7b--7b-------7-----7--|


C |--------------------------------------------------------------------------|
G |-------------------------------------------10----10-----------------------|
D#|--------------------------------------------9-----9-----------------------|
A#|--------------------------------------------------------------------------|
F |--------------------------------------------------------------------------|
A#|--7b--7b--7b----7b--7b--7b----7b--7b--7b--7-----7-----7b--7b--7b--7b--7b--|

[Final Chorus]

(Starts after trumpets/synth)

C |----------------------------------------           ---------------------------------------------------|
G |----------------------------------------           ---------------------------------------------------|
D#|----------------------------------------           ---------------------------------------------------|
A#|----------------------------------------           --0--0--0----------------3--3--3------3------3-----|
F |--0-0-15-0-0-15-0-0-15-0-0-15-0-15-0-0-- x2        --0--0--0--12-0--12-0----3--3--3-------------------|
A#|----------------------------------------           --0--0--0--12-0--12-0----3--3--3---------3-----3---|

[Chorus Continued]

C |---------------------------------------------------------------------------|
G |---------------------------------------------------------------------------|
D#|----------------------------------------------5-----5-----------5-----5----|
A#|--7-----10-----10-----5-----9-----9----0-----------------3-----------------| x4
F |--7-------------------5----------------0-----------------3-----------------|
A#|--7---7----7-7----7---5---5---5-5---5--0---0----0-0---0--3---3----3-3---3--|

[End]

C |-------------------------------------------------------------|
G |-------------------------------------------------------------|
D#|-------------------------------------------------------------|
D#|-------------------------------------------------------------|
F |--12--0-0-0-0--0-0-0-0-0--13p8-------12--0-0-0-0--0-0-0-0-0--|
A#|-------------------------------12----------------------------|


Legend

p - pull off
h - hammer on
b - bend string

[Intro: Oli Sykes]
Hey, uh, are we rolling?
Yeah, okay; no it's, that's fine
I read a fun fact about the brain and
How it starts to deteriorate when
We get to 27 or thereabouts (Yeah)
It got me thinking about my head
And what I can Do to help stimulate it
Makes me sad, but I've forgotten what I'm on about
(Ah!)

[Verse 1: Oli Sykes]
Looked on the bright side, got keratitis
And you can't sit there unless you're righteous
I wear a happy face like I'm Ed Gein
I feel all numb now, is that a feeling?
Like a plastic boxed orange with no peel on
I wanna waste, I wanna waste, I wanna waste away
(Yeah!)

[Chorus: Oli Sykes]
'Lone, getting high on a Saturday night
I'm on the edge of a knife
Nobody cares if I'm dead or alive
Oh, what a wonderful life

[Verse 2: Oli Sykes]
Oi, Debbie Downer, what's your problem?
Don't wanna be here, still call a shotgun
You got the FOMO coursing through my veins (Yo, yay, yo, yay)
This is not a drill, no, this is the real world
Domesticated, still a little feral
Well, don't you know to chew with your mouth closed?
(And it's all gone wrong!)

[Chorus: Oli Sykes]
'Lone, getting high on a Saturday night
I'm on the edge of a knife (Yeah!)
Nobody cares if I'm dead or alive
Oh, what a wonderful life
(Oh, what a wonderful life)
(Oh, what a wonderful life)
Alright

[Verse 3: Dani Filth & Oli Sykes]
I got a Type 2 kinda thirstiness
A far-out otherworldliness
And one day this might hurt me less
But everybody knows I'm still down
Don't tell me what the butcher does
There's no need for the obvious
So ugly, still, it's kinda lush
But everybody knows I made vows
Left feet on the podium
Can't think of an alternate
And hell yeah, I'm the awkwardest
But everybody knows I got bounce

[Breakdown]
(Yeah!)

[Chorus: Oli Sykes]
'Lone, getting high on a Saturday night
I'm on the edge of a knife
Nobody cares if I'm dead or alive
Oh, what a wonderful life
Oh, what a wonderful life
Oh, what a wonderful life
Nobody cares if I'm dead or alive
Oh, what a wonderful life

Bring Me The Horizon - Wonderful Life - ноты

(включить)
Другие композиции этого автора:
Другие материалы по этой песне:
  • Аккорды, текст

https://primanota.ru/bring-me-the-horizon/wonderful-life-chords.htm

Привет, гитарист!

Тебе подарок от сайта PrimaNota.ru

Забрать подарок
ВАМ ПОДАРКИ ОТ ПРОЕКТА
"ГИТАРНАЯ РЕВОЛЮЦИЯ"