» 
 » 
Sugar Honey Ice And Tea



Bring Me The Horizon - Sugar Honey Ice And Tea - аккорды

Чайковский в рок-аранжировке! Очень необычно, послушай!
Тональность: 
0
Масштаб: 
100%
Прокрутка: 
0
Проще!
Аппликатуры
Нотный режим
Sugar Honey Ice And Tea
Bring Me The Horizon
[ Предположительная тональность: C ]

Bring Me The Horizon - Sugar Honey Ice & Tea


[Intro/Main Riff]

D|----------------------------------------------------------------|
A|----------------------------------------------------------------|
F|----------------------------------------------------------------|
C|----------------------------------------------------------------|
G|----------------------8h10/12---------------------8-10h12-10p8--|
C|--8-10--5--12---10h12----------8-10--5--12--10h12---------------|

D|-------------------------------------------------------|
A|-------------------------------------------------------|
F|-------------------------------------------------------|
C|-------------------------------------------------------|
G|----------------------8h10/12--------------------------|
C|--8-10--5--12---10h12----------5--3-5-3--2--2-2-2-3-3--|


[Verse 1]

D|------------------------------------------------------------------------|
A|------------------------------------------------------------------------|
F|------------------------------------------------------------------------|
C|------------------------------------------------------------------------|
G|-----------------------------8h10/12------------------------------------|
C|--8-8-8--5-5/12--12-12-10h12----------8-8-8--5-5/12--12-12-12--3-3-3-3--|
                                                                            x2
D|------------------------------------------------------------------------|
A|------------------------------------------------------------------------|
F|------------------------------------------------------------------------|
C|------------------------------------------------------------------------|
G|-----------------------------8h10/12------------------------------------|
C|--8-8-8--5-5/12--12-12-10h12----------5--3-5-3--2--2-2-2-3-3-3-3--------|


[Pre-Chorus]

D|------------------------------------------------------------------------|
A|------------------------------------------------------------------------|
F|------------------------------------------------------------------------|
C|------------------------------------------------------------------------|
G|------------------------------------------------------------------------|
C|--8---8---5---5---10---10---10---10---8---8---5---5----10---10---3---3--|

D|------------------------------------------------------------------------|
A|------------------------------------------------------------------------|
F|------------------------------------------------------------------------|
C|------------------------------------------------------------------------|
G|------------------------------------------------------------------------|
C|--8---8---5---5---10---10---10---10---5--3-5-3--2---2-2-2-3-3-3-3-------|


[Chorus]

D|----------------------------------------------------------------|
A|----------------------------------------------------------------|
F|----------------------------------------------------------------|
C|----------------------------------------------------------------|
G|----------------------8h10/12---------------------8-10h12-10p8--|
C|--8-10--5--12---10h12----------8-10--5--12--10h12---------------|
                                                                     x2
D|-------------------------------------------------------|
A|-------------------------------------------------------|
F|-------------------------------------------------------|
C|-------------------------------------------------------|
G|----------------------8h10/12--------------------------|
C|--8-10--5--12---10h12----------5--3-5-3--2--2-2-2-3-3--|


[Verse 2]

D|------------------------------|
A|------------------------------|
F|------------------------------|
C|------------------------------|
G|------------------------------|
C|--5--3-5-3--2--2-2-2-3-3-3-3--|


D|------------------------------------------------------------------------|
A|------------------------------------------------------------------------|
F|------------------------------------------------------------------------|
C|------------------------------------------------------------------------|
G|-----------------------------8h10/12------------------------------------|
C|--8-8-8--5-5/12--12-12-10h12----------8-8-8--5-5/12--12-12-12--3-3-3-3--|
                                                                            x2
D|------------------------------------------------------------------------|
A|------------------------------------------------------------------------|
F|------------------------------------------------------------------------|
C|------------------------------------------------------------------------|
G|-----------------------------8h10/12------------------------------------|
C|--8-8-8--5-5/12--12-12-10h12----------5--3-5-3--2--2-2-2-3-3-3-3--------|


[Pre-Chorus]

D|------------------------------------------------------------------------|
A|------------------------------------------------------------------------|
F|------------------------------------------------------------------------|
C|------------------------------------------------------------------------|
G|------------------------------------------------------------------------|
C|--8---8---5---5---10---10---10---10---8---8---5---5----10---10---3---3--|

D|------------------------------------------------------------------------|
A|------------------------------------------------------------------------|
F|------------------------------------------------------------------------|
C|------------------------------------------------------------------------|
G|------------------------------------------------------------------------|
C|--8---8---5---5---10---10---10---10---5--3-5-3--2---2-2-2-3-3-3-3-------|


[Chorus]

D|----------------------------------------------------------------|
A|----------------------------------------------------------------|
F|----------------------------------------------------------------|
C|----------------------------------------------------------------|
G|----------------------8h10/12---------------------8-10h12-10p8--|
C|--8-10--5--12---10h12----------8-10--5--12--10h12---------------|
                                                                     x2
D|-------------------------------------------------------|
A|-------------------------------------------------------|
F|-------------------------------------------------------|
C|-------------------------------------------------------|
G|----------------------8h10/12--------------------------|
C|--8-10--5--12---10h12----------5--3-5-3--2--2-2-2-3-3--|


[Break]

D|-------------------------------------------------------------------------------------|
A|-------------------------------------------------------------------------------------|
F|-------------------------------------------------------------------------------------|
C|-------------------------------------------------------------------------------------|
G|-------------------------------------------------------------------------------------|
C|--8-8-8-5-5-5-10-10-10-10-10-10-10-10-10-10---8-8-8-5-5-5-10-10-10-10-10-10-3-3-3-3--|

D|--------------------------------------------------------------------------------|
A|--------------------------------------------------------------------------------|
F|--------------------------------------------------------------------------------|
C|--------------------------------------------------------------------------------|
G|--------------------------------------------------------------------------------|
C|--8-8-8-5-5-5-10-10-10-10-10-10-10-10-10-10---8-8-8-8--8-7-5-5-5-5-5-5-7-7-7-7--|

D|-------------------------------------------------------------------------------------|
A|-------------------------------------------------------------------------------------|
F|-------------------------------------------------------------------------------------|
C|-------------------------------------------------------------------------------------|
G|-------------------------------------------------------------------------------------|
C|--8-8-8-5-5-5-10-10-10-10-10-10-10-10-10-10---8-8-8-5-5-5-10-10-10-10-10-10-7-7-7-7--|

D|--------------------------------------------------------------------------------|
A|--------------------------------------------------------------------------------|
F|--------------------------------------------------------------------------------|
C|--------------------------------------------------------------------------------|
G|--------------------------------------------------------------------------------|
C|--8-8-8-5-5-5-10-10-10-10-10-10-10-10-10-10---5-5-5-5--5-3-2-2-2-2-2-2-3-3-3-3--|


[Solo]

D|----------------------------------------------------------------------------------------------|
A|----------------------------------------------------------------------------------------------|
F|--10-12-10--12--12b14b12--10-12-10-12b14----10-12-10--12--12b14b12--10-12-10--12b14b12p10-----|
C|------------------------------------------------------------------------------------------12--|
G|----------------------------------------------------------------------------------------------|
C|----------------------------------------------------------------------------------------------|
                                                                                                   x2
D|-------------------------------------------|
A|-------------------------------------------|
F|--10-12-10--12--12b14b12--------107-------|
C|---------------------------12--------------|
G|-------------------------------------10----|
C|-------------------------------------------|


[Chorus]

D|----------------------------------------------------------------|
A|----------------------------------------------------------------|
F|----------------------------------------------------------------|
C|----------------------------------------------------------------|
G|----------------------8h10/12---------------------8-10h12-10p8--|
C|--8-10--5--12---10h12----------8-10--5--12--10h12---------------|
                                                                     x2
D|-------------------------------------------------------|
A|-------------------------------------------------------|
F|-------------------------------------------------------|
C|-------------------------------------------------------|
G|----------------------8h10/12--------------------------|
C|--8-10--5--12---10h12----------5--3-5-3--2--2-2-2-3-3--|


[Ending]

D|----------------------------------------------------------------|
A|----------------------------------------------------------------|
F|----------------------------------------------------------------|
C|----------------------------------------------------------------|
G|----------------------8h10/12---------------------8-10h12-10p8--|
C|--8-10--5--12---10h12----------8-10--5--12--10h12---------------|

D|-------------------------------------------------------|
A|-------------------------------------------------------|
F|-------------------------------------------------------|
C|-------------------------------------------------------|
G|----------------------8h10/12--------------------------|
C|--8-10--5--12---10h12----------5--3-5-3--2--2-2-2-3-3--|



Legend

h - hammer on
p - pull off
/ - slide up
 - slide down

[Verse 1]
Count down the thunder
I think we're too close for comfort
So no, don't rock the boat and don't calm the storm
God already gave you His answer
Blink, I'm sorry, it's over
The whistle's been blown, I
Think you got the wrong number
I'm breaking up
Wanna make a connection
Can't get no reception
Leave a message after the tone

[Pre-Chorus]
'Cause it's got my head running 24/7
I don't know if I can figure it out
It's all messed up, only one thing I know for sure
We're so full of

[Chorus]
Sugar, honey, ice, and tea
Sugar, honey, ice, and tea
(Everybody's full of)
Sugar, honey, ice, and tea
Sugar, honey, ice, and tea

[Verse 2]
Don't move a muscle
No, we can't have a struggle
But the "situation is in control"
So play pretend that it's all good
You could tell the Messiah
His pants are on fire
I politely decline, I
I gotta go, I gotta stick my head in the sand
And block out all the sadness
La, la, la, la, la, la, la, la

[Pre-Chorus]
'Cause it's got my head running 24/7
I don't know if I can figure it out
It's all messed up, only one thing I know for sure
We're so full of

[Chorus]
Sugar, honey, ice, and tea
Sugar, honey, ice, and tea
(Yeah, everybody's full of)
Sugar, honey, ice, and tea
Sugar, honey, ice, and tea

[Bridge]
And it's got my head running 24/7
I don't reckon I can figure it out
It's all messed up, only one thing I know for sure
(We're so fucked)
And we all march on like we know the way to Heaven
Who the hell died and made you the king?
We don't know what we want, but we know that we want it
Yeah, we want it, yeah, we want it right now
Yeah, yeah, yeah, yeah, oh
(Fuck you) Everybody, everybody's full of

[Chorus]
Sugar, honey, ice, and tea (Oh, and now everybody's full of)
Sugar, honey, ice, and tea (Every, every, everybody full of)
Sugar, honey, ice, and tea (Oh, everybody's full of)
Sugar, honey, ice, and tea (Yeah, yeah, yeah, yeah, yeah, yeah)

Bring Me The Horizon - Sugar Honey Ice And Tea - ноты

(включить)
Другие композиции этого автора:
Другие материалы по этой песне:
  • Аккорды, текст

https://primanota.ru/bring-me-the-horizon/sugar-honey-ice-and-tea-chords.htm

Привет, гитарист!

Тебе подарок от сайта PrimaNota.ru

Забрать подарок
ВАМ ПОДАРКИ ОТ ПРОЕКТА
"ГИТАРНАЯ РЕВОЛЮЦИЯ"