» 
 » 
Исправим мир



Братья поздняковы - Исправим мир - аккорды

Чайковский в рок-аранжировке! Очень необычно, послушай!
Тональность: 
0
Масштаб: 
100%
Прокрутка: 
0
Проще!
Аппликатуры
Нотный режим
Исправим мир
Братья поздняковы
[ Предположительная тональность: Em ]

Перебор в куплетах

-проиграть до R-повтор до Em+9 и на Em7(окончания разные)

----------------------------- 3-2---------R---2--3--5----
-------3--------5-------0----5-3--5--3---R-5-3--5--7-----
-----0---0--------0---0---0-------5--4---R-4----------
------------0-4---------------------------R-----------
---3--------------------------------------R-----------
6.-------------------0--------------------R-----------
    С9          D9        Em          Em+9            Em7

1.--------------------------3--------3-------3-----2------0-...
------3---------5------------------------------1----------0-...
----0---0---------0------0----0----0---0---0-----2--2----0-...
-----------0--4----------------------------------0--------0-...
--3-------------------------------3--------0--------------2-...
6.---------------------3-----------------------------------0-...
    C9        D9             G              C          Am       D          Em7...

Играть переборы согласно аккордам.(как в табах)

Em7          C9           D9       Em
    В мире, полном печали и зла,
           C9            D9             Em
Где война, словно часть ремесла,
         С9               D9                 G                   C
Мы живём, день за днём, но чтоб счастье было в нём,
            Am      D        Em7
Мы должны исправить мир.

-так-же-

Где-то вновь рухнул вниз самолёт,
Мать солдата в ночи слёзы льёт.
Мы боимся пути, но чтоб знать, куда идти,
Am                 D        G=бой(VVVVV.....
Мы должны исправить мир.

Припев:    /V...^V...V^...^V.../

G......            Am7(002010)       D7(X00212)
    Настал тот день, настал тот час,
            G       Gmai   Em7           G(320003) Gmai(320002)
Когда зависит всё от нас.
          Am7                D7
Остановить кровавый спор,
             G       Gmai  Em7               Em7(020000)
Войну, лишенья и террор.
                Am7                   D7
Настал тот день, настал тот час -
     G      Gmai     Em7
Планета ждёт от нас.
     C       D                               D(X00232
Исправим мир!

2 куплет

Дети мира играли в весну.
Выстрел танка пронзил тишину.
Мы боимся пути, но чтоб знать, куда идти,
Мы должны исправить мир

Припев:
Настал тот день, настал тот час,
Когда зависит всё от нас.
Остановить кровавый спор,
Войну, лишенья и террор.
Настал тот день, настал тот час
Планета ждёт от нас.

Братья поздняковы - Исправим мир - ноты

(включить)
https://primanota.ru/bratya-pozdnyakovy/ispravim-mir.htm

Привет, гитарист!

Тебе подарок от сайта PrimaNota.ru

Забрать подарок
ВАМ ПОДАРКИ ОТ ПРОЕКТА
"ГИТАРНАЯ РЕВОЛЮЦИЯ"