Войти:  Facebook Google Twitter Vk Yandex Mail.ru
PrimaNota.ru - самый крупный в мире бесплатный архив песенных текстов, аккордов, табулатур и нот


Boyce Avenue - Name - табы

Печатать
ViraMusic 2019 в Петербурге 4 апреля 2019! Скидка 10%!

Name

  • аккорды, текст

Авторы музыки: Johnny Rzeznik
Авторы текста: Johnny Rzeznik
-------------------------------------------------------------------------------
                             Boyce Avenue - Name
-------------------------------------------------------------------------------
Tabbed by: Stefan Premovic      

Tuning: C#G#D#G#D#d#


Intro:

d#|-------------------------------------------------------------------|
D#|-------0---------------0---------------0---------------0-------0---|
G#|-----0-----0---0-----0-----0---0-----0-----0---0-----0-------0-----| G1
D#|-------------0---------------0---------------0---------------------|
G#|---------------------------------5---------------------------------|
C#|-7---------------6-------------------------------4-------2-------0-|

    D   D   D    D    D  U    U  D  U D U D   D   D   D U D U   U D U  
d#|-0---0---0----0----0--0----0--0--0-0-0-0---0---0---0-0-0-0---0-0-0-|
D#|-0---0---0----0----0--0----0--0--0-0-0-0---0---0---0-0-0-0---0-0-0-|
G#|-0---0---0----0----0--0----0--0--0-0-0-0---0---0---0-0-0-0---0-0-0-| G1
D#|-5/7-7h9-9/12-12---12-12---12-12-12----5/7-7h9-9---9-7-9-7---9-7-5-|
G#|-7/9-9---9/12-12---12-12---12-12-12----7/9-9---9---9-9-9-9---9-9-7-|
C#|-0---0---0----0----0--0----0--0--0-----0---0---0---0-0-0-0---0-0-0-|


Verse 1:

d#|-------------------------------------------------------------------|
D#|-------0---------------0---------------0---------------0-------0---|
G#|-----0-----0---0-----0-----0---0-----0-----0---0-----0-------0-----| G1
D#|-------------0---------------0---------------0---------------------|\
G#|---------------------------------5---------------------------------|\\
C#|-7---------------6-------------------------------4-------2-------0-| \\
                                                                         x2
    D   D   D    D    D  U    U  D  U D U D   D   D   D U D U   U D U   //
d#|-0---0---0----0----0--0----0--0--0-0-0-0---0---0---0-0-0-0---0-0-0-|//
D#|-0---0---0----0----0--0----0--0--0-0-0-0---0---0---0-0-0-0---0-0-0-|/
G#|-0---0---0----0----0--0----0--0--0-0-0-0---0---0---0-0-0-0---0-0-0-| G1
D#|-5/7-7h9-9/12-12---12-12---12-12-12----5/7-7h9-9---9-7-9-7---9-7-5-|
G#|-7/9-9---9/12-12---12-12---12-12-12----7/9-9---9---9-9-9-9---9-9-7-|
C#|-0---0---0----0----0--0----0--0--0-----0---0---0---0-0-0-0---0-0-0-|

d#|-------------------------------------------------------------------|
D#|-------0---------------0---------------0---------------0-------0---|
G#|-----0-----0---0-----0-----0---0-----0-----0---0-----0-------0-----| G1
D#|-------------0---------------0---------------0---------------------|
G#|---------------------------------5---------------------------------|
C#|-7---------------6-------------------------------4-------2-------0-|

    D   D   D    D    D  U    U  D  U D U D   D   D   D U D U D U D U  
d#|-0---0---0----0----0--0----0--0--0-0-0-0---0---0---0-0-0-0-0-0-0-0-|
D#|-0---0---0----0----0--0----0--0--0-0-0-0---0---0---0-0-0-0-0-0-0-0-|
G#|-0---0---0----0----0--0----0--0--0-0-0-0---0---0---0-0-0-0-0-0-0-0-| G1
D#|-5/7-7h9-9/12-12---12-12---12-12-12----5/7-7h9-9---7-9-7-9-7-9-7-5-|
G#|-7/9-9---9/12-12---12-12---12-12-12----7/9-9---9---9-9-9-9-9-9-9-7-|
C#|-0---0---0----0----0--0----0--0--0-----0---0---0---0-0-0-0-0-0-0-0-|


Chorus 1: 

    D   D U   U D U D   D U   U D U D   D   D U D U   U D U   U D U
d#|-0-----5---4-0-0-0-----2---0-0-0-----0---0-0-0-0---0-0-0---0-0-0-|
D#|-0-----0---0-0-0-0-----0---0-0-0-----0---0-0-0-0---0-0-0---0-0-0-|
G#|-0---0-0---0-0-0-0---0-0---0-0-0-----0---0-0-0-0---0-0-0---0-0-0-| G1
D#|-0---0-0---0-0-0-0---0-0---0-0-0-----5---5-5-5-5---5-5-5---5-5-5-|
G#|-4---4-----------2---2-----------0-------0-0-0-0---0-0-0---0-0-0-|
C#|-4---4-----------2---2-----------0-------0-0-0-0---0-0-0---0-0-0-|
  |                                                                 |
  | D   D U   U D U D   D U   U D U D   D   D U D U   U D U   U D U |
d#|-0-----5---4-0-0-0-----2---0-0-0-----0---0-0-0-0---0-0-0---0-0-0-|
D#|-0-----0---0-0-0-0-----0---0-0-0-----0---0-0-0-5---5-5-5---5-5-5-|
G#|-0---0-0---0-0-0-0---0-0---0-0-0-----0---0-0-0-0---0-0-0---0-0-0-| G2
D#|-0---0-0---0-0-0-0---0-0---0-0-0-----5---5-5-5-5---5-5-5---5-5-5-|
G#|-4---4-----------2---2-----------0-------0-0-0-0---0-0-0---0-0-0-|
C#|-4---4-----------2---2-----------0-------0-0-0-0---0-0-0---0-0-0-|


    D   D U   U D U D   D U   U D U D   D   D U D U   U D U   U D U
d#|-0-----5---4-0-0-0-----2---0-0-0-----0---0-0-0-0---0-0-0---0-0-0-|
D#|-0-----0---0-0-0-0-----0---0-0-0-----0---0-0-0-0---0-0-0---0-0-0-|
G#|-0---0-0---0-0-0-0---0-0---0-0-0-----0---0-0-0-0---0-0-0---0-0-0-| G1
D#|-0---0-0---0-0-0-0---0-0---0-0-0-----5---5-5-5-5---5-5-5---5-5-5-|
G#|-4---4-----------2---2-----------0-------0-0-0-0---0-0-0---0-0-0-|
C#|-4---4-----------2---2-----------0-------0-0-0-0---0-0-0---0-0-0-|
  |                                                                 |
  | D   D U   U D U D   D U   U D U D   D   D U D U   U   U   U D U |
d#|-0-----5---4-0-0-0-----2---0-0-0-----0---0-0-0-0---0---0---0-0-0-|
D#|-0-----0---0-0-0-0-----0---0-0-0-----0---0-0-0-5---7---9---9-9-9-|
G#|-0---0-0---0-0-0-0---0-0---0-0-0-----0---0-0-0-0---0---0---0-0-0-| G2
D#|-0---0-0---0-0-0-0---0-0---0-0-0-----5---5-5-5-5---7---9---9-9-9-|
G#|-4---4-----------2---2-----------0-------0-0-0-0---0---0---0-0-0-|
C#|-4---4-----------2---2-----------0-------0-0-0-0---0---0---0-0-0-|


    D   D U   U D U D   D U   U D U D   D   D U D U   U D U   U D U
d#|-0-----5---4-0-0-0-----2---0-0-0-----0---0-0-0-0---0-0-0---0-0-0-|
D#|-0-----0---0-0-0-0-----0---0-0-0-----0---0-0-0-0---0-0-0---0-0-0-|
G#|-0---0-0---0-0-0-0---0-0---0-0-0-----0---0-0-0-0---0-0-0---0-0-0-| G1
D#|-0---0-0---0-0-0-0---0-0---0-0-0-----5---5-5-5-5---5-5-5---5-5-5-|
G#|-4---4-----------2---2-----------0-------0-0-0-0---0-0-0---0-0-0-|
C#|-4---4-----------2---2-----------0-------0-0-0-0---0-0-0---0-0-0-|
  |                                                                 |
  | D   D U   U D U D   D U   U D U D   D   D U D U   U D U   U D U |
d#|-0-----5---4-0-0-0-----2---0-0-0-----0---0-0-0-0---0-0-0---0-0-0-|
D#|-0-----0---0-0-0-0-----0---0-0-0-----0---0-0-0-5---5-5-5---5-5-5-|
G#|-0---0-0---0-0-0-0---0-0---0-0-0-----0---0-0-0-0---0-0-0---0-0-0-| G2
D#|-0---0-0---0-0-0-0---0-0---0-0-0-----5---5-5-5-5---5-5-5---5-5-5-|
G#|-4---4-----------2---2-----------0-------0-0-0-0---0-0-0---0-0-0-|
C#|-4---4-----------2---2-----------0-------0-0-0-0---0-0-0---0-0-0-|


    D   D U   U D U D   D U   U D U D
d#|-0-----5---4-0-0-0-----2---0-0-0-0-------------------------------|
D#|-0-----0---0-0-0-0-----0---0-0-0-0-------------------------------|
G#|-0---0-0---0-0-0-0---0-0---0-0-0-0-------------------------------| G1,G2
D#|-0---0-0---0-0-0-0---0-0---0-0-0-5-------------------------------|
G#|-4---4-----------2---2-----------0-------------------------------|
C#|-4---4-----------2---2-----------0-------------------------------|


d#|-------------------------------------------------------------------|
D#|-------0---------------0---------------0---------------0-------0---|
G#|-----0-----0---0-----0-----0---0-----0-----0---0-----0-------0-----| G1
D#|-------------0---------------0---------------0---------------------|
G#|---------------------------------5---------------------------------|
C#|-7---------------6-------------------------------4-------2-------0-|
  |                                                                   |
d#|-------------------------------------------------------------------|
D#|-------------------------------------------------------------------|
G#|-------------------------------------------------------------------| G2
D#|-9---------------7---------------5---------------5-------4-------2-|
G#|-------------------------------------------------------------------|
C#|-------------------------------------------------------------------|


    D   D   D    D    D  U    U  D  U D U D   D   D   D U D U   U D U  
d#|-0---0---0----0----0--0----0--0--0-0-0-0---0---0---0-0-0-0---0-0-0-|
D#|-0---0---0----0----0--0----0--0--0-0-0-0---0---0---0-0-0-0---0-0-0-|
G#|-0---0---0----0----0--0----0--0--0-0-0-0---0---0---0-0-0-0---0-0-0-| G1
D#|-5/7-7h9-9/12-12---12-12---12-12-12----5/7-7h9-9---9-7-9-7---9-7-5-|
G#|-7/9-9---9/12-12---12-12---12-12-12----7/9-9---9---9-9-9-9---9-9-7-|
C#|-0---0---0----0----0--0----0--0--0-----0---0---0---0-0-0-0---0-0-0-|
  |                                                                   |
d#|-------------------------------------------------------------------|
D#|-------------------------------------------------------------------|
G#|-------------------4p0-2p0-----------------------------------------| G2
D#|---------------------------0h2---------------------9\7-5h7--/9\7---|
G#|-------------------------------------------------------------------|
C#|-------------------------------------------------------------------|


Verse 2:

Guitar 1 - same as in Verse 1

Guitar 2:

d#|-------------------------------------------------------------------|
D#|-------------------------------------------------------------------|
G#|-------------------------------------------------------------------| G2
D#|-9---------------7---------------5---------------5-------4-------2-|\
G#|-------------------------------------------------------------------|\\
C#|-------------------------------------------------------------------| \\
                                                                         x2
d#|-------------------------------------------------------------------| //
D#|-------------------------------------------------------------------|//
G#|-------------------4p0-2p0-----------------------------------------| G2
D#|---------------------------0h2---------------------9\7-5h7--/9\7---|
G#|-------------------------------------------------------------------|
C#|-------------------------------------------------------------------|

d#|-------------------------------------------------------------------|
D#|-------------------------------------------------------------------|
G#|-------------------------------------------------------------------| G2
D#|-9---------------7---------------5---------------5-------4-------2-|
G#|-------------------------------------------------------------------|
C#|-------------------------------------------------------------------|

d#|-------------------------------------------------------------------|
D#|-------------------------------------------------------------------|
G#|-------------------4p0-2p0-----------------------------------------| G2
D#|---------------------------0h2---------------------9\7-5h7-7/9\7\5-|
G#|-------------------------------------------------------------------|
C#|-------------------------------------------------------------------|


Chorus 2:

Play the same as in the first chorus, and then add:

d#|-------------------------------------------------------------------|
D#|-------0---------------0---------------0---------------0-------0---|
G#|-----0-----0---0-----0-----0---0-----0-----0---0-----0-------0-----| G1
D#|-------------0---------------0---------------0---------------------|
G#|---------------------------------5---------------------------------|
C#|-7---------------6-------------------------------4-------2-------0-|
  |                                                                   |
d#|-------------------------------------------------------------------|
D#|-------------------------------------------------------------------|
G#|-------------------------------------------------------------------| G2
D#|-9---------------7---------------5---------------5-------4-------2-|
G#|-------------------------------------------------------------------|
C#|-------------------------------------------------------------------|

    D   D   D    D    D  U    U  D  U D U D   D   D   D U D U D U D U  
d#|-0---0---0----0----0--0----0--0--0-0-0-0---0---0---0-0-0-0-0-0-0-0-|
D#|-0---0---0----0----0--0----0--0--0-0-0-0---0---0---0-0-0-0-0-0-0-0-|
G#|-0---0---0----0----0--0----0--0--0-0-0-0---0---0---0-0-0-0-0-0-0-0-| G1
D#|-5/7-7h9-9/12-12---12-12---12-12-12----5/7-7h9-9---7-9-7-9-7-9-7-5-|
G#|-7/9-9---9/12-12---12-12---12-12-12----7/9-9---9---9-9-9-9-9-9-9-7-|
C#|-0---0---0----0----0--0----0--0--0-----0---0---0---0-0-0-0-0-0-0-0-|
  |                                                                   |
d#|-------------------------------------------------------------------|
D#|-------------------------------------------------------------------|
G#|-------------------4p0-2p0-----------------------------------------| G2
D#|---------------------------0h2---------------------9\7-5h7-7/9\7\5-|
G#|-------------------------------------------------------------------|
C#|-------------------------------------------------------------------|


Instrumental:

                            Guitar 1 plays:

    D   D U   U D U D   D U   U D U D   D   D U D U   U D U   U D U
d#|-0-----5---4-0-0-0-----2---0-0-0-----0---0-0-0-0---0-0-0---0-0-0-|
D#|-0-----0---0-0-0-0-----0---0-0-0-----0---0-0-0-0---0-0-0---0-0-0-|
G#|-0---0-0---0-0-0-0---0-0---0-0-0-----0---0-0-0-0---0-0-0---0-0-0-| G1
D#|-0---0-0---0-0-0-0---0-0---0-0-0-----5---5-5-5-5---5-5-5---5-5-5-|\\
G#|-4---4-----------2---2-----------0-------0-0-0-0---0-0-0---0-0-0-| \\
C#|-4---4-----------2---2-----------0-------0-0-0-0---0-0-0---0-0-0-|  \\
                                                                        x2
    D   D U   U D U D   D U   U D U D   D   D U D U   U   U   U D U    //
d#|-0-----5---4-0-0-0-----2---0-0-0-----0---0-0-0-0---0---0---0-0-0-| //
D#|-0-----0---0-0-0-0-----0---0-0-0-----0---0-0-0-0---0---0---0-0-0-|//
G#|-0---0-0---0-0-0-0---0-0---0-0-0-----0---0-0-0-0---0---0---0-0-0-| G1
D#|-0---0-0---0-0-0-0---0-0---0-0-0-----5---5-5-5-5---7---9---9-9-9-|
G#|-4---4-----------2---2-----------0-------0-0-0-0---0---0---0-0-0-|
C#|-4---4-----------2---2-----------0-------0-0-0-0---0---0---0-0-0-|

    D   D U   U D U D   D U   U D U D   D   D U D U   U D U   U D U
d#|-0-----5---4-0-0-0-----2---0-0-0-----0---0-0-0-0---0-0-0---0-0-0-|
D#|-0-----0---0-0-0-0-----0---0-0-0-----0---0-0-0-0---0-0-0---0-0-0-|
G#|-0---0-0---0-0-0-0---0-0---0-0-0-----0---0-0-0-0---0-0-0---0-0-0-| G1
D#|-0---0-0---0-0-0-0---0-0---0-0-0-----5---5-5-5-5---5-5-5---5-5-5-|
G#|-4---4-----------2---2-----------0-------0-0-0-0---0-0-0---0-0-0-|
C#|-4---4-----------2---2-----------0-------0-0-0-0---0-0-0---0-0-0-|

    D   D U   U D U D   D U   U D U D
d#|-0-----5---4-0-0-0-----2---0-0-0-0-------------------------------|
D#|-0-----0---0-0-0-0-----0---0-0-0-0-------------------------------|
G#|-0---0-0---0-0-0-0---0-0---0-0-0-0-------------------------------| G1
D#|-0---0-0---0-0-0-0---0-0---0-0-0-5-------------------------------|
G#|-4---4-----------2---2-----------0-------------------------------|
C#|-4---4-----------2---2-----------0-------------------------------|


                            Guitar 2 plays:

d#|---------------------------------------------------------------------------------------|
D#|---------------------------------------------------------------------------------------|
G#|-2h4-4-4-4-2-0---0-----0-2-4-2-0---0---0-2-4-4/5-4---4/5-5---5-5/7-7-7-7-7-7-7-7\4-4\2-| G2
D#|---------------------------------------------------------------------------------------|
G#|---------------------------------------------------------------------------------------|
C#|---------------------------------------------------------------------------------------|

d#|----------------------------------------------------------------------------------------|
D#|----------------------------------------------------------------------------------------|
G#|-2-4-2-0-0---0-----0-0-------------0-0-0-0-2-4-4/5-4---7/9-9---9-7-7-9-9/12-12-12-12p11-| G2
D#|-----------------------5---4/5-5--------------------------------------------------------|
G#|----------------------------------------------------------------------------------------|
C#|----------------------------------------------------------------------------------------|

d#|----------------------------------------------------------------------------------------|
D#|----------------------------------------------------------------------------------------|
G#|-11-11h12-12---12p11-11---11-11h12-12---12p11-11-11-11h12---14---16/17-17-17\16-16---16-| G2
D#|----------------------------------------------------------------------------------------|
G#|----------------------------------------------------------------------------------------|
C#|----------------------------------------------------------------------------------------|

d#|----------------------------------------------------------------------------------------|
D#|-------------------------------9--9--9--9--9--9-9-10-10p9---9-9---7---5-5---4\2-2/4-4/5-|
G#|-16-16-16/17-17---16---14---12-12-12-12-12-12-12----------------------------------------| G2
D#|----------------------------------------------------------------------------------------|
G#|----------------------------------------------------------------------------------------|
C#|----------------------------------------------------------------------------------------|
                                 S S S
d#|--------------------------------------------------0-------------------------------------|
D#|-5/7-7/9-9h10-10-10-9---7---5-5-5-5\4-4-4/5-5---5-5-------------------------------------|
G#|--------------------------------------------------0-------------------------------------| G2
D#|--------------------------------------------------5-------------------------------------|
G#|--------------------------------------------------0-------------------------------------|
C#|--------------------------------------------------0-------------------------------------|


Verse 3:

d#|-------------------------------------------------------------------|
D#|-------0---------------0---------------0---------------0-------0---|
G#|-----0-----0---0-----0-----0---0-----0-----0---0-----0-------0-----| G1
D#|-------------0---------------0---------------0---------------------|
G#|---------------------------------5---------------------------------|
C#|-7---------------6-------------------------------4-------2-------0-|
  |                                                                   |
d#|-------------------------------------------------------------------|
D#|-------------------------------------------------------------------|
G#|-------------------------------------------------------------------| G2
D#|-------------------------------------------------5-------4-------4-|
G#|-------------------------------------------------------------------|
C#|-------------------------------------------------------------------|

    D   D   D    D    D  U    U  D  U D U D   D   D   D U D U   U D U  
d#|-0---0---0----0----0--0----0--0--0-0-0-0---0---0---0-0-0-0---0-0-0-|
D#|-0---0---0----0----0--0----0--0--0-0-0-0---0---0---0-0-0-0---0-0-0-|
G#|-0---0---0----0----0--0----0--0--0-0-0-0---0---0---0-0-0-0---0-0-0-| G1
D#|-5/7-7h9-9/12-12---12-12---12-12-12----5/7-7h9-9---9-7-9-7---9-7-5-|
G#|-7/9-9---9/12-12---12-12---12-12-12----7/9-9---9---9-9-9-9---9-9-7-|
C#|-0---0---0----0----0--0----0--0--0-----0---0---0---0-0-0-0---0-0-0-|

d#|-------------------------------------------------------------------|
D#|-------0---------------0---------------0---------------0-------0---|
G#|-----0-----0---0-----0-----0---0-----0-----0---0-----0-------0-----| G1
D#|-------------0---------------0---------------0---------------------|
G#|---------------------------------5---------------------------------|
C#|-7---------------6-------------------------------4-------2-------0-|


Outro:

d#|---------------------------------0---0-0-0-0-0---0-----------------|
D#|---------------------------------0---0-0-0-0-0---0-----------------|
G#|---------------------------------0---0-0-0-0-0---0-----------------|
D#|---------------------------------7h9-9-7-9-7-5---0-----------------|
G#|---------------------------------9---9-9-9-9-7---0-----------------|
C#|---------------------------------0---0-0-0-0-0---7-----------------|


************************************

| /   slide up
| \   slide down
| h   hammer-on
| p   pull-off
| D   downstroke
| U   upstroke
| S   16th note

************************************

Lyric:

Verse 1:
And even though the moment passed me by
I still can't turn away
'Cause all the dreams you never thought you'd lose
Got tossed along the way
Letters that you never meant to send
Get lost or thrown away

Chorus 1:
And now we're grown up orphans that never knew their names
We don't belong to no one, that's a shame
But if you could hide beside me maybe for a while
And I won't tell no one your name
And I won't tell 'em your name

Verse 2:
Scars are souvenirs you never lose
The past is never far
Did you lose yourself somewhere out there
Did you get to be a star
Don't it make you sad to know that life
Is more than who we are

Chorus 2:
You grew up way too fast and now there's nothing to believe
And reruns all become our history
A tired song keeps playing on a tired radio
And I won't tell no one your name
And I won't tell 'em your name

I won't tell 'em your name
I won't tell 'em your name
I won't tell 'em your name

Verse 3:
I think about you all the time
But I don't need the same
It's lonely where you are come back down
I won't tell 'em your name

   
https://primanota.ru/boyce-avenue/name-chords.htm

Привет, гитарист!

Тебе подарок от сайта PrimaNota.ru

Забрать подарок
ВАМ ПОДАРКИ ОТ ПРОЕКТА
"ГИТАРНАЯ РЕВОЛЮЦИЯ"