Войти:  Facebook Google Twitter Vk Yandex Mail.ru
PrimaNota.ru - самый крупный в мире бесплатный архив песенных текстов, аккордов, табулатур и нот


Boyce Avenue - Without You - табы

Печатать
ViraMusic 2019 в Петербурге 4 апреля 2019! Скидка 10%!

Without You

  • аккорды, текст

-------------------------------------------------------------------------------
                        Boyce Avenue - Without you
-------------------------------------------------------------------------------

Alejanro's guitar.

Tuning: C#G#C#FG#c#


Intro:

c#|-----------------------------------------------------------------|
G#|-------0---------------0--h2---0-------0---------------5---4---0-|
F |-----0---------------0---------------0---------------0-----------|
C#|---0---------------0---------------0---------------0-------------|
G#|-----------------------------------------------------------------|
C#|-0---------------0---------------5---------------5---------------|

c#|-----------------------------------------------------------------|
G#|-------0---------------0---------------0-------------------------|
F |-----0---------------0---------0-----0-----0---------------------|
C#|---0---------------0-------2-------0---------0-------------------|
G#|-2---------------2-----------------------------------------------|
C#|---------------------------------5---------------5---------------|


Verse 1:

c#|-----------------------------------------------------------------|
G#|-------0-------------------------------0-------------------------|
F |-----0-------------------------------0---------------------------|
C#|---0-------------------------------0-----------------------------|
G#|-----------------------------------------------------------------|
C#|-0-------------------------------5-------------------------------|

c#|-----------------------------------------------------------------|
G#|-------0-------------------------------0-------------------------|
F |-----0-------------------------------0---------------------------|
C#|---0-------------------------------0-----------------------------|
G#|-2---------------------------------------------------------------|
C#|---------------------------------5-------------------------------|

c#|-----------------------------------------------------------------|
G#|-------0---------------0--h2---0-------0---------------5---4---0-|
F |-----0---------------0---------------0---------------0-----------|
C#|---0---------------0---------------0---------------0-------------|
G#|-----------------------------------------------------------------|
C#|-0---------------0---------------5---------------5---------------|

c#|-----------------------------------------------------------------|
G#|-------0---------------0---------------0-------------------------|
F |-----0---------------0---------0-----0-----0-------------1p0-----|
C#|---0---------------0-------2-------0-----------0-------------0---|
G#|-2---------------2-----------------------------------------------|
C#|---------------------------------5---------------5---------------|


Verse 2:

c#|-------0---------------0---------------0---------------0---------|
G#|-----0---------------0---------------0---------------0-----------|
F |-----------------------------------------------------------------|
C#|---0---------------0---------------0---------------0-------------|
G#|-----------------------------------------------------------------|
C#|-0-0-0-0-0-0-0-0-0-0-0-0-0-0-0-0-5-5-5-5-5-5-5-5-5-5-5-5-5-5-5-5-|

c#|-------0---------------0---------------0---------------0---------|
G#|-----0---------------0---------------0---------------0-----------|
F |---0---------------0---------------------------------------------|
C#|-----------------------------------0---------------0-------------|
G#|-2-2-2-2-2-2-2-2-2-2-2-2-2-2-2-2---------------------------------|
C#|---------------------------------5-5-5-5-5-5-5-5-5-5-5-5-5-5-5-5-|

c#|-------0---------------0---------------0---------------0---------|
G#|-----0---------------0---------------0---------------0-----------|
F |-----------------------------------------------------------------|
C#|---0---------------0---------------0---------------0-------------|
G#|-----------------------------------------------------------------|
C#|-0-0-0-0-0-0-0-0-0-0-0-0-0-0-0-0-5-5-5-5-5-5-5-5-5-5-5-5-5-5-5-5-|

c#|-------0---------------0-----------------------------------------|
G#|-----0---------------0---------------0---4-2-0-------------------|
F |---0---------------0---------------------------0-----------------|
C#|-----------------------------------0-----------------------------|
G#|-2-2-2-2-2-2-2-2-2-2-2-2-2-2-2-2---------------------------------|
C#|---------------------------------5-5-5-5-5-5-5-5-----------------|


Chorus 1:

c#|-0-----0---------0-----0---------0-----0---------0-----0---------|
G#|-0-----0---------0-----0---------0-----0---------0-----0---------|
F |-0-----0---------0-----0---------0-----0---------0-----0---------| x2
C#|-0-----0---------0-----0---------0-----0---------0-----0---------|
G#|-0-----5---------0-----5---------0-----5---------9-----7---------|
C#|-4-----5---------4-----5---------4-----5---------9-----7---------|
        *                               *
c#|---00x-0---------0-----0-----------00x-0---------0-----0---------|
G#|---00x-0---------0-----0-----------00x-0---------0-----0---------|
F |---00x-0---------0-----0-----------00x-0---------0-----0---------|
C#|-0-00x-0---------0-----0---------0-00x-0---------0-----0---------|
G#|-0-----5---------0-----5---------0-----5---------9-----7---------|
C#|-4-----5---------4-----5---------4-----5---------9-----7---------|

c#|-0---------------------------------------------------------------|
G#|-0---------------------------------------------------------------|
F |-0---------------------------------------------------------------|
C#|-0---------------------------------------------------------------|
G#|-0---------------------------------------------------------------|
C#|-0---------------------------------------------------------------|

*NOTE: Mute notes after strumming.


Verse 3:

c#|-----------------------------------------------------------------|
G#|-------0---------------0--h2---0-------0---------------5---4---0-|
F |-----0---------------0---------------0---------------0-----------|
C#|---0---------------0---------------0---------------0-------------|
G#|-----------------------------------------------------------------|
C#|-0---------------0---------------5---------------5---------------|

c#|-----------------------------------------------------------------|
G#|-------0---------------0---------------0-------------------------|
F |-----0---------------0---------0-----0-----0-------------1p0-----|
C#|---0---------------0-------2-------0-----------0-------------0---|
G#|-2---------------2-----------------------------------------------|
C#|---------------------------------5---------------5---------------|

c#|-------0---------------0---------------0---------------0---------|
G#|-----0---------------0---------------0---------------0-----------|
F |-----------------------------------------------------------------|
C#|---0---------------0---------------0---------------0-------------|
G#|-----------------------------------------------------------------|
C#|-0-0-0-0-0-0-0-0-0-0-0-0-0-0-0-0-5-5-5-5-5-5-5-5-5-5-5-5-5-5-5-5-|

c#|-------0---------------0---------------0---------------0---------|
G#|-----0---------------0---------------0---------------0-----------|
F |---0---------------0---------------------------------------------|
C#|-----------------------------------0---------------0-------------|
G#|-2-2-2-2-2-2-2-2-2-2-2-2-2-2-2-2---------------------------------|
C#|---------------------------------5-5-5-5-5-5-5-5-5-5-5-5-5-5-5-5-|

c#|-------0---------------0---------------0---------------0---------|
G#|-----0---------------0---------------0---------------0-----------|
F |-----------------------------------------------------------------|
C#|---0---------------0---------------0---------------0-------------|
G#|-----------------------------------------------------------------|
C#|-0-0-0-0-0-0-0-0-0-0-0-0-0-0-0-0-5-5-5-5-5-5-5-5-5-5-5-5-5-5-5-5-|

c#|-------0---------------0-----------------------------------------|
G#|-----0---------------0---------------0---4-2-0-------------------|
F |---0---------------0---------------------------0-----------------|
C#|-----------------------------------0-----------------------------|
G#|-2-2-2-2-2-2-2-2-2-2-2-2-2-2-2-2---------------------------------|
C#|---------------------------------5-5-5-5-5-5-5-5-----------------|


Chorus 2:

c#|-0--0------------0--0------------0--0------------0--0--0---------|
G#|-0--0------0---0-0--0------0---0-0--0------0---0-0--0--0---------|
F |-0--0--------0---0--0--------0---0--0--------0---0--0--0---------| x2
C#|-0--0--0-4h5-----0--0--0-4h5-----0--0--0-4h5-----0--0--0---0-0---|
G#|-0--0--5---------0--0--5---------0--0--5---------9--9--7---7-7---|
C#|-4--4--5---------4--4--5---------4--4--5---------9--9--7---7-7---|

c#|---00x-------------00x-------------00x-------------00x-0---------|
G#|---00x-----0---0---00x-----0---0---00x-----0---0---00x-0---------|
F |---00x-------0-----00x-------0-----00x-------0-----00x-0---------| x2
C#|-0-00x-0-4h5-----0-00x-0-4h5-----0-00x-0-4h5-----0-00x-0---0-0---|
G#|-0-----5---------0-----5---------0-----5---------9-----7---0-0---|
C#|-4-----5---------4-----5---------4-----5---------9-----7---7-7---|

c#|-0---------------------------------------------------------------|
G#|-0---------------------------------------------------------------|
F |-0---------------------------------------------------------------|
C#|-0---------------------------------------------------------------|
G#|-0---------------------------------------------------------------|
C#|-0---------------------------------------------------------------|


Outro:

c#|-----------------------------------------------------------------|
G#|-------0-------------------------------0-------------------------|
F |-----0-------------------------------0---------------------------|
C#|---0-------------------------------0-----------------------------|
G#|-----------------------------------------------------------------|
C#|-0-------------------------------5-------------------------------|

c#|-----------------------------------------------------------------|
G#|-------0-------------------------------0-------------------------|
F |-----0-------------------------------0---------------------------|
C#|---0-------------------------------0-----------------------------|
G#|-2---------------------------------------------------------------|
C#|---------------------------------5-------------------------------|

c#|-----------------------------------------------------------------|
G#|-----------------------------------------------------------------|
F |-----------------------------------------------------------------|
C#|-----------------------------------------------------------------|
G#|-----------------------------------------------------------------|
C#|-0---------------------------------------------------------------|


************************************

| h   hammer-on
| p   pull-off
| x   Mute note

************************************

Verse  1:
I can't win, I can't reign
I will never win this game
Without you, without you
I am lost, I am vain,
I will never be the same
Without you, without you

Verse 2:
I won't run, I won't fly
I will never make it by
Without you, without you
I can't rest, I can't fight
All I need is you and I,
Without you, without you

Chorus:
Oh oh oh!
You! You! You!
Without...
You! You! You!
Without...you

Verse 3:
Can't erase, so I'll take blame
But I can't accept that we're estranged
Without you, without you
I can't quit now, this can't be right
I can't take one more sleepless night
Without you, without you
I can't look, I'm so blind
I lost my heart, I lost my mind
Without you, without you

Chorus:
Oh oh oh!
You! You! You!
Without...
You! You! You!
Without...you

Outro:
I am lost, I am vain,
I will never be the same
Without you, without you
Without...you
   
https://primanota.ru/boyce-avenue/without-you-chords.htm

Привет, гитарист!

Тебе подарок от сайта PrimaNota.ru

Забрать подарок
ВАМ ПОДАРКИ ОТ ПРОЕКТА
"ГИТАРНАЯ РЕВОЛЮЦИЯ"