Войти:  Facebook Google Twitter Vk Yandex Mail.ru
PrimaNota.ru - самый крупный в мире бесплатный архив песенных текстов, аккордов, табулатур и нот


Boyce Avenue - Latch - табы

Печатать
ViraMusic 2019 в Петербурге 4 апреля 2019! Скидка 10%!

Latch

  • аккорды, текст

Tuning: Standard
Capo: none
Difficulty: average
Instruments: 1 acoustic guitar (in original cover there are 2 acoustic guitars but they
play the same at all)


[Verse 1]

e|------3--------3--------3--------3--|
B|----3-------3--------3--------3-----|
G|--0------------------------0--------| x2
D|---------2--------------------------|
A|------------------3-----------------|
E|------------------------------------|

e|--------2--3--------3--2--------2--3--------3-----|
B|-----3-----------3-----------3-----------3-----3--|
G|--0-----------------------------------0-----------| x2
D|--------------2-----------------------------------|
A|--------------------------3-----------------------|
E|--------------------------------------------------|


[Pre-Chorus]

e|--------2--3--------3--2--------2--3--------3-----|
B|-----3-----------3-----------3-----------3-----3--|
G|--0-----------------------------------0-----------|
D|--------------2-----------------------------------|
A|--------------------------3-----------------------|
E|--------------------------------------------------|

e|--------2--3--------3--2--------2--3--3--|
B|-----3-----------3-----------3--------3--|
G|--0-----------------------------------0--|
D|--------------2--------------------------|
A|--------------------------3--------------|
E|-------------------------------------(3)-|


[Chorus]

(strum the chords)

    G5      em7     C7add9     G5
e|--3-----3--3-----3--3-----3--3-----3--|
B|--3--3-----3--3-----3--3-----3--3-----|
G|--0--------0--------0--------0--------|
D|--0-------(2)-------2--------0--------|
A|--2--------2--------3--------2--------|
E|--3--------0--------x--------3--------|

    G5      em7     C7add9     G5
e|--3-----3--3-----3--3-----3--3--|
B|--3--3-----3--3-----3--3-----3--|
G|--0--------0--------0--------0--|
D|--0-------(2)-------2--------0--|
A|--2--------2--------3--------2--|
E|--3--------0--------x--------3--|


[Verse 2]

  x2 (next 2 tabs)
e|--3--3-----3--3-----3-------3--3-----3--3-----3--|
B|--3--3-----3--3-----3-------3--3-----3--3-----3--|
G|--0-----0--------0-----0----------0--------0-----|
D|----------------------------2--------------------|
A|-------------------------------------------------|
E|-(3)---------------------------------------------|

e|--3--3-----3--3-----3-------3--3-----3--3-----2h3--|
B|--3--3-----3--3-----3-------3--3-----3--3-----3----|
G|--------0--------0-----0----0-----0--------0-------|
D|---------------------------------------------------|
A|--3------------------------------------------------|
E|---------------------------(3)---------------------|

 x2 (next 2 tabs)
e|--3-----3-----2-----2h3-----3-----3-----2-----2h3---|
B|--3-----3-----3-----3-------3-----3-----3-----3-----|
G|--0--0-----0-----0-----0-------0-----0-----0-----0--|
D|----------------------------2-----------------------|
A|----------------------------------------------------|
E|-(3)------------------------------------------------|

e|--3-----3-----2-----2h3-----3-----3-----2-----2h3---|
B|--3-----3-----3-----3-------3-----3-----3-----3-----|
G|--0--0-----0-----0-----0----0--0-----0-----0-----0--|
D|----------------------------------------------------|
A|--3-------------------------------------------------|
E|---------------------------(3)----------------------|


[Pre-Chorus]

e|--------2--3--------3--2--------2--3--------3-----|
B|-----3-----------3-----------3-----------3-----3--|
G|--0-----------------------------------0-----------|
D|--------------2-----------------------------------|
A|--------------------------3-----------------------|
E|--------------------------------------------------|

e|--------2--3--------3--2--------2--3--3--|
B|-----3-----------3-----------3--------3--|
G|--0-----------------------------------0--|
D|--------------2--------------------------|
A|--------------------------3--------------|
E|-------------------------------------(3)-|


[Chorus]

(strum the chords)

    G5         em7     C7add9        G5
e|--3-----3-----3-----3--3-----3-----3-----3--|
B|--3--3-----3--3--3-----3--3-----3--3--3-----|
G|--0-----------0--------0-----------0--------|
D|--0----------(2)-------2-----------0--------|
A|--2-----------2--------3-----------2--------|
E|--3-----------0--------x-----------3--------|

    G5         em7     C7add9        G5
e|--3-----3-----3-----3--3-----3-----3--|
B|--3--3-----3--3--3-----3--3-----3--3--|
G|--0-----------0--------0-----------0--|
D|--0----------(2)-------2-----------0--|
A|--2-----------2--------3-----------2--|
E|--3-----------0--------x-----------3--|

    G5                G5 em7
e|--3-----3-----2-----3--3-----3-----2-----|
B|--3-----3-----3-----3--3-----3-----3-----|
G|--0--0-----0-----0--0--0--0-----0-----0--|
D|--0-----------------0--0-----------------|
A|--2-----------------2--2-----------------|
E|--3-----------------3--0-----------------|

   em7 C7add9           C7add9 G5
e|--3--3-----3-----2--------3--3-----3-----2-----|
B|--3--3-----3-----3--------3--3-----3-----3-----|
G|--0--0--0-----0-----0--0--0--0--0-----0-----0--|
D|--0--2--------------------2--0-----------------|
A|--2--3--------------------3--2-----------------|
E|--0--x--------------------x--3-----------------|

   G5 G5                G5 em7
e|--3--3-----3-----2-----3--3-----3-----2-----|
B|--3--3-----3-----3-----3--3-----3-----3-----|
G|--0--0--0-----0-----0--0--0--0-----0-----0--|
D|--0--0-----------------0--0-----------------|
A|--2--2-----------------2--2-----------------|
E|--3--3-----------------3--0-----------------|

   em7 C7add9           C7add9 G5
e|--3--3-----3-----2--------3--3--|
B|--3--3-----3-----3--------3--3--|
G|--0--0--0-----0-----0-----0--0--|
D|--0--2--------------------2--0--|
A|--2--3--------------------3--2--|
E|--0--x--------------------x--3--|


[Outro]

e|--------2--3--------3--2--------2--3--------3-----|
B|-----3-----------3-----------3-----------3-----3--|
G|--0-----------------------------------0-----------|
D|--------------2-----------------------------------|
A|--------------------------3-----------------------|
E|--------------------------------------------------|

e|--------2--3--------3--2--------2--3--3--|
B|-----3-----------3-----------3--------3--|
G|--0-----------------------------------0--|
D|--------------2--------------------------|
A|--------------------------3--------------|
E|-------------------------------------(3)-|


************************************

| x    Dead note
| (n)  Ghost note
| h    Hammer-on

************************************

Thank you very much and it would be awesome if you would give me a good rating!
The following link is for the youtube video of this cover if you like to check it out. ;-)
https://www.youtube.com/watch?v=Jo2QHf4Itoo   
Другие материалы по этой песне:
  • Аккорды, текст

https://primanota.ru/boyce-avenue/latch-chords.htm

Привет, гитарист!

Тебе подарок от сайта PrimaNota.ru

Забрать подарок
ВАМ ПОДАРКИ ОТ ПРОЕКТА
"ГИТАРНАЯ РЕВОЛЮЦИЯ"