Войти:  Facebook Google Twitter Vk Yandex Mail.ru
PrimaNota.ru - самый крупный в мире бесплатный архив песенных текстов, аккордов, табулатур и нот


Boyce Avenue - Lovely Mess - табы

Печатать
ViraMusic 2019 в Петербурге 4 апреля 2019! Скидка 10%!

Lovely Mess

  • аккорды, текст

Tuning DADADD


Guitar 1
D|-----------------------------------------------------------------------|
D|--------2-------2-------2----------------2-----------------------------|
A|-----0--------0-------0------0---------0----0--------------------------|
D|--4---------2-------0-------------------------2------------------------|
A|------------------------------------0-----------0----------------------|
D|-----------------------------------------------------------------------|

Guitar 2
D|------------------------------------|
D|------------------------------------|
A|---5----4----0----------------------|
D|------------------------------------|
A|------------------------------------|
D|------------------------------------|
   
Другие материалы по этой песне:
  • Аккорды, текст

https://primanota.ru/boyce-avenue/lovely-mess-chords.htm

Привет, гитарист!

Тебе подарок от сайта PrimaNota.ru

Забрать подарок
ВАМ ПОДАРКИ ОТ ПРОЕКТА
"ГИТАРНАЯ РЕВОЛЮЦИЯ"