Войти:  Facebook Google Twitter Vk Yandex Mail.ru
PrimaNota.ru - самый крупный в мире бесплатный архив песенных текстов, аккордов, табулатур и нот


Blackmore's Night - Greensleaves -


Greensleeves
Traditional song given a makeover by Blackmores Night from their
1997 debut album Shadow of The Moon. Bass performance Richie 
Blackmore. Tab by bass50611. Great version. Think it's somewhere
Near Blackmores original. Lots and lots of pause dots. 
Comments at bass254@btinternet.com 

Intro:
   .     .     .         (Pause)      .          .         .
G|-------------------------------------------------------------------
D|-------------------------------------------------------------------
A|-----------------------------------------------------0-2-3---------
E|-5-----5-----5-----5-3-1---------5-55-------5-55-------------3-2-0-

       .                          .    .    .      .       .
G|-----------------------------------------------------------
D|-----------------------------------------------------------
A|--------------2-----0-2-3----------------------------------
E|-5-3-1----0-4--4------------3-2-0----1----0------5-------5-

Verse 1:
                 .       .                .       .     .     .   .
G|------------------------------------------------------------------
D|------------------------------------------------------------------
A|-0-2-3--2-0--------------------2----0-2-3-------------------------
E|-----------3-2-0---5-3-1---0-4--4-----------3-2-0---0-1---1-0---5-

Chorus:
   .             .                    .             .     .     .
G|----------------------------------------------------------------
D|----------------------------------------------------------------
A|-3---3-2-0----------------------2-2-3---3-2-0-------------------
E|-----------3-1-0---5-3-1--1-0-4--4------------3-1-0---0-1---1-0-

     .    .
G|--------------------
D|--------------------
A|--------------------
E|-0-5----5---5-3-1-0-

Solo:
                 .       .                .       .     .     .   .
G|------------------------------------------------------------------
D|------------------------------------------------------------------
A|-0-2-3--2-0--------------------2----0-2-3-------------------------
E|-----------3-2-0---5-3-1---0-4--4-----------3-2-0---0-1---1-0---5-

   .        .        .            .     . 
G|----------------------------------------
D|----------------------------------------
A|----------------------------------------
E|-5--------5--------5--------5-3-1-----3-

Verse 2: (Key Change to C)
       .        .       .                .       .     .
G|----------------------------------------------------------------
D|----------------------------------------------------------------
A|-3-5-6------------3-1------2-5-2---3-5-6--------------------2-3-
E|---------6-5-3-------4---3-----------------6-5-3---3-4---4-3----

Chorus 2:
                                                          .     .
G|----------------------------------------------------------------
D|----------------------------------------------------------------
A|-3---3-5-6---6-5-3-1-------3-1-----2-5-2--5-6--6-5-3-1----------
E|---------------------4-3------4---3-------------------4-3---3-4-

         .   .   .       .   .    .      .
G|-----------------------------------------
D|-----------------------------------------
A|-----2-3---3---------2-3---3-------------
E|-4-3-----------4---3------------4------3-

Outro:
   .        .        .           . (Song Fades Out)
G|-----------------------------------------------------------------
D|-----------------------------------------------------------------
A|-3--------3--------3--------3-1----------------------------------
E|-------------------------------4---------4---------3h4---------4-
   
https://primanota.ru/blackmores-night/greensleaves-chords.htm

Привет, гитарист!

Тебе подарок от сайта PrimaNota.ru

Забрать подарок
ВАМ ПОДАРКИ ОТ ПРОЕКТА
"ГИТАРНАЯ РЕВОЛЮЦИЯ"