Войти:  Facebook Google Twitter Vk Yandex Mail.ru
PrimaNota.ru - самый крупный в мире бесплатный архив песенных текстов, аккордов, табулатур и нот


Blackmore's Night - Carry On Jon - табы

Печатать
ViraMusic 2019 в Петербурге 4 апреля 2019! Скидка 10%!

Carry On Jon

  • аккорды, текст

Авторы музыки: Ritchie Blackmore

-------------------------------------------------------------------------------
                             SONG NAME - Band Name
-------------------------------------------------------------------------------
Tabbed by: Philipp Görs PKGRS93 (Instagram)
E-mail: philipp.goers@web.de

Tuning: Standard (EADGBe)

e|------------------5s7-5------------------------------------------------------|
B|-------7-8--------------8-7b9r7-----------7-8--------------------------------|
G|-----9--------------------------9-7~--7s9------------------------------------|
D|-7s9-------9-9s10-----------------------------9-9s10-10s12-12s13-------------|
A|-----------------------------------------------------------------------------|
E|-----------------------------------------------------------------------------|

e|----------------------12-10--------------------------------------------------|
B|-------7-8------10s12-------10-12-13-12~-12p10-8-10-12-8s10~-8-7b8r7-5~-7b---|
G|-----9-----------------------------------------------------------------------|
D|-7s9-------9-10------------------------------------------------------------9~|
A|-----------------------------------------------------------------------------|
E|-----------------------------------------------------------------------------|

e|------------------5s7-5----------------------------------------12-14-15-12---|
B|-------7-8--------------8-7b9r7-----------7-8~-8s10~-10s12~-12-------------13|
G|-----9--------------------------9-7~--7s9------------------------------------|
D|-7s9-------9-9s10------------------------------------------------------------|
A|-----------------------------------------------------------------------------|
E|-----------------------------------------------------------------------------|

e|-14-12-10h12p10-------------------------------------10s12~-12b13p10----------|
B|----------------13-12~-12-10-8-10-12s10~-8-7-5----------------------12--10---|
G|-----------------------------------------------7b9-------------------------12|
D|-----------------------------------------------------------------------------|
A|-----------------------------------------------------------------------------|
E|-----------------------------------------------------------------------------|

e|----------------------------------10-10--------------------------11-12-11-14-|
B|---------10-------------------10--------13-12s13s12-10s12s8------------------|
G|-11~--12----12s11-9~--9-12-11------------------------------------------------|
D|------------------------------------------------------------12~--------------|
A|-----------------------------------------------------------------------------|
E|-----------------------------------------------------------------------------|

e|------15b17-15-14-12----12h14p12----------------12---------------------------|
B|-12~-----------------15----------15-14-12----12----12------------------------|
G|------------------------------------------15---------12-11----11-12-11h12p11-|
D|-----------------------------------------------------------14----------------|
A|-----------------------------------------------------------------------------|
E|-----------------------------------------------------------------------------|

e|---------------------------------------------12s14-12h14p12-11----11---------|
B|-----------------------------12--------------------------------14----12-13-12|
G|----12-11h12p11-----11-12-14----12-11-12b14----------------------------------|
D|-14-------------14-----------------------------------------------------------|
A|-----------------------------------------------------------------------------|
E|-----------------------------------------------------------------------------|


************************************

| s   slide
| h   hammer-on
| p   pull-off
| ~   vibrato
| +   harmonic
| x   Mute note
| b   Bend
| pb  Pre-bend
| br  Bend release
| pbr Pre-bend release
| brb Bend release bend

************************************   
Другие композиции этого автора:
Другие материалы по этой песне:
  • Аккорды, текст

https://primanota.ru/blackmores-night/carry-on-jon-chords.htm

Привет, гитарист!

Тебе подарок от сайта PrimaNota.ru

Забрать подарок
ВАМ ПОДАРКИ ОТ ПРОЕКТА
"ГИТАРНАЯ РЕВОЛЮЦИЯ"