» 
 » 
Lo Hi



Black Keys - Lo Hi - аккорды

Чайковский в рок-аранжировке! Очень необычно, послушай!
Тональность: 
0
Масштаб: 
100%
Прокрутка: 
0
Проще!
Аппликатуры
Нотный режим
Lo Hi
Black Keys
[ Предположительная тональность: D ]

THE BLACK KEYS
"Lo/Hi"

Standard Tuning
Tempo = 123 bpm




e|---------------------------------|---------------------|
B|---------------------------------|---------------------|
G|---------------------0---2---0---|-2---0---5-----2-----|
D|-------------0---2---------------|---------------------| x4
A|-----0---3-----------------------|---------------------|
E|-3-------------------------------|---------------------|


[VERSE/PRE-CHROUS]

e|------------------------|-----------------------------|
B|------------------------|-----------------------------|
G|------2--------2----2---|-(2)----2-------7-------5----|
D|------2--------2----2---|-(2)----2-------7-------5----| x8
A|-0------------------0---|-(0)-------/5-------5--------|
E|------------------------|-----------------------------|


[CHORUS]

e||------------------------|------------------------|
B||------------------------|------------------------|
G||-7b8r7---5---7---5~~~---|------------------------|
D||------------------------|-----5---5---5----7-----|
A||------------------------|-----5---5---5----7-----|
E||------------------------|-----3---3---3----5-----|

e|------------------------|---------------------------||
B|------------------------|---------------------------||
G|-7b8r7---5---7---5~~~---|---------------------------||
D|------------------------|-5---5---5---7-------------|| x2
A|------------------------|-5---5---5---7-------------||
E|------------------------|-3---3---3---5-------------||


[VERSE 2/PRE-CHROUS 2]

e|------------------------|-----------------------------|
B|------------------------|-----------------------------|
G|------2--------2----2---|-(2)----2-------7-------5----|
D|------2--------2----2---|-(2)----2-------7-------5----| x8
A|-0------------------0---|-(0)-------/5-------5--------|
E|------------------------|-----------------------------|


[CHORUS 2]

e||------------------------|------------------------|
B||------------------------|------------------------|
G||-7b8r7---5---7---5~~~---|------------------------|
D||------------------------|-----5---5---5----7-----|
A||------------------------|-----5---5---5----7-----|
E||------------------------|-----3---3---3----5-----|

e|------------------------|---------------------------||
B|------------------------|---------------------------||
G|-7b8r7---5---7---5~~~---|---------------------------||
D|------------------------|-5---5---5---7-------------|| x2
A|------------------------|-5---5---5---7-------------||
E|------------------------|-3---3---3---5-------------||


[SOLO]

e|-------------------------|-----------------------|-------------------------|-15b17---15--17--15------|
B|-15b17r15--13--15--13~~~-|-----------------13~~~-|-15b17r15--13--15--13~~~-|---------------------17--|
G|-------------------------|-14~~~---12--14--------|-------------------------|-------------------------|
D|-------------------------|-----------------------|-------------------------|-------------------------|
A|-------------------------|-----------------------|-------------------------|-------------------------|
E|-------------------------|-----------------------|-------------------------|-------------------------|


e|-------------------------|-----------------------|-------------------------|-15b17---15--15b17-------|
B|-15b17r15--13--15--13~~~-|-----------------13~~~-|-15b17r15--13--15--13~~~-|-------------------------|
G|-------------------------|-14~~~---12--14--------|-------------------------|-------------------------|
D|-------------------------|-----------------------|-------------------------|-------------------------|
A|-------------------------|-----------------------|-------------------------|-------------------------|
E|-------------------------|-----------------------|-------------------------|-------------------------|


[RE-INTRO]

e|---------------------------------|---------------------|
B|---------------------------------|---------------------|
G|---------------------0---2---0---|-2---0---5-----2-----|
D|-------------0---2---------------|---------------------| x4
A|-----0---3-----------------------|---------------------|
E|-3-------------------------------|---------------------|


[FINAL CHORUS]

e||------------------------|------------------------|
B||------------------------|------------------------|
G||-7b8r7---5---7---5~~~---|------------------------|
D||------------------------|-----5---5---5----7-----|
A||------------------------|-----5---5---5----7-----|
E||------------------------|-----3---3---3----5-----|

e|------------------------|---------------------------||
B|------------------------|---------------------------||
G|-7b8r7---5---7---5~~~---|---------------------------||
D|------------------------|-5---5---5---7-------------|| x4
A|------------------------|-5---5---5---7-------------||
E|------------------------|-3---3---3---5-------------||



***********************************
| /   Slide up
|    Slide down
| h   Hammer-on
| p   Pull-off
| b   Bend
| ~   Vibrato
|(n)  Tied note
***********************************


Woo!

[Verse 1]
Out on a limb in the wind of a hurricane
Down at the bar like a star in the howlin' rain

[Pre-Chorus]
Nobody to love you
Nobody to care
If you die, nobody will hug you
No one to answer your prayer

[Chorus]
You get low (Low) like a valley
Then high (High) like a bird in the sky
You get low (Low) 'cause you're angry
Low, high, high, low

[Verse 2]
One at a time, get in line for the masquerade
Drink 'til you cry and you're lyin' in the mess you made

[Pre-Chorus]
Nobody to love you
Nobody to care
Nobody to drug you
No one to hold back your hair

[Chorus]
You get low (Low) like a valley
Then high (High) like a bird in the sky
You get low (Low) 'cause you're angry
Low, high, high, low

[Instrumental Break]

[Interlude]
Ah
Woo! Woo!

[Chorus]
You get low (Low) like a valley
Then high (High) like a bird in the sky
You get low (Low) 'cause you're angry
Low (Low), high (High), high, low
Low (Low), high (High), high, low
Low (Low), high (High), high, low

Black Keys - Lo Hi - ноты

(включить)
Другие композиции этого автора:
Другие материалы по этой песне:
  • Аккорды, текст

https://primanota.ru/black-keys/lo-hi-chords.htm

Привет, гитарист!

Тебе подарок от сайта PrimaNota.ru

Забрать подарок
ВАМ ПОДАРКИ ОТ ПРОЕКТА
"ГИТАРНАЯ РЕВОЛЮЦИЯ"