» 
 » 
Shine A Little Light



Black Keys - Shine A Little Light - аккорды

Чайковский в рок-аранжировке! Очень необычно, послушай!
Тональность: 
0
Масштаб: 
100%
Прокрутка: 
0
Проще!
Аппликатуры
Нотный режим
Shine A Little Light
Black Keys
[ Предположительная тональность: D ]

Artist: The Black Keys
Album: Let's Rock (2019)
Tempo: 111 BPM

Lead Guitar (Fuzz and slight flange on verse and Fuzz + Wah on Chorus)
Rhythm Guitar (Clean with Reverb on verse + Heavy distorsion on chorus)


            Fm  B           Fm  F           Fm  B           Fm  F
e|------------------------------------------------------------------|
B|------------------------------------------------------------------|
G|--12p11p9------9--12p11p9---------12p11p9------9--12p11p9--11--9--|
D|-----------11--------------11--9-----------11---------------------|
A|------------------------------------------------------------------|
E|------------------------------------------------------------------|

[Chorus Lead]
                                                 Hold
e|------------------------------------------------------------------------------|
B|----------------------------12------------------------------------------------|
G|--11/13--11/13--13--11--13-------/13v--9/11--9/11------9/11--11--11/1311--9--|
D|------------------------------------------------------------------------------|
A|------------------------------------------------------------------------------|
E|------------------------------------------------------------------------------|

e|-----------------------------------------------------------------|
B|----------------------------12-----------------------------------|
G|--11/13--11/13--13--11--13-------/13v--9-11v--9-11v---9-11-9-8v--|
D|-----------------------------------------------------------------|
A|-----------------------------------------------------------------|
E|-----------------------------------------------------------------|

e|--------------------------|
B|--------------------------|
G|----------11b12r11--9-----|
D|----------------------11--|  Note: Also used as a fill throughout the choruses^^
A|--------------------------|
E|--------------------------|

e|--------------------------------|
B|----------------------12/14vv---|
G|----------11b12r11--9-----------|
D|--------------------------------|  Note: Fill ending (2:36)
A|--------------------------------|
E|--------------------------------|


e|---------------------------|
B|----------12/14vv/17b19v---|
G|---------------------------|
D|---------------------------|  Note: Fill ending (2:45)
A|---------------------------|
E|---------------------------|


[Chorus Rhythm]
                                1st time
e|------------------------------------------------------------|
B|------------------------------------------------------------|
G|--6--6-----9--6-----9--9--11--6---6-------------------------|
D|--6--6-----9--6-----9--9--11--6---6--x2---------------------|
A|--4--4-----7--4-----7--7--9---4---4-------------------------|
E|--4--4--0--7--4--0--7--7--9---4---4-------------------------|
          .        .

      2nd time end with
e|-----------------|
B|-----------------|
G|-----------------|
D|----6------------|
A|----6-x8---------|
E|----4------------|

[Verse Rhythm]

Strum F#m chord 4 times (5th string down then first 4 together up)
followed by Cm chord 4 times (6th string down then first 5 together up)

[Verse Lead]

(listen for timing)

e|--2--|-----|--2--|-----------|---------------------|-----|---------------------------------|
B|--2--|-----|--2--|--7--5-----|-------5--7--7p5-----|-----|-9--9--7--7---5--7--5------------|
G|--3--|--6--|--3--|--------6--|--4/6-------------6--|-----|-----------------------6--6-4-6--|
D|--4--|-----|--4--|-----------|---------------------|--4--|---------------------------------|
A|--4--|-----|--4--|-----------|---------------------|-----|---------------------------------|
E|--2--|-----|--2--|-----------|---------------------|-----|---------------------------------|

************************************

| p  Pull-off
| /  Slide up
|   Slide down
| r  Release
| b  Bend
| x  Dead note
| .  Palm mute
| v  Vibrato

************************************

[Verse 1]
Do you feel like you're the only one living on a prayer?
Have you ever tried to love someone who wasn't even there?

[Pre-Chorus]
No one really knows
Where it goes from here
But we all decompose
And slowly disappear

[Chorus]
If evil lays its hands on me
Shine a little light on my soul
Show me things I cannot see
Shine a little light on my soul

[Verse 2]
Go to places that you used to Go
But they don't feel the same
See the faces that you used to know
But they forget your name

[Pre-Chorus]
No one really knows
Where it goes from here
But we all decompose
And slowly disappear

[Chorus]
If evil lays its hands on me
Shine a little light on my soul
Show me things I cannot see
Shine a little light on my soul

[Chorus]
If evil lays its hands on me
Shine a little light on my soul
I'm waiting, praying, patiently
Shine a little light on my soul

Black Keys - Shine A Little Light - ноты

(включить)
Другие композиции этого автора:
Другие материалы по этой песне:
  • Аккорды, текст

https://primanota.ru/black-keys/shine-a-little-light-chords.htm

Привет, гитарист!

Тебе подарок от сайта PrimaNota.ru

Забрать подарок
ВАМ ПОДАРКИ ОТ ПРОЕКТА
"ГИТАРНАЯ РЕВОЛЮЦИЯ"