Войти:  Facebook Google Twitter Vk Yandex Mail.ru
PrimaNota.ru - самый крупный в мире бесплатный архив песенных текстов, аккордов, табулатур и нот


Ben Howard - Further Away Live - табы

Печатать
ViraMusic 2019 в Петербурге 4 апреля 2019! Скидка 10%!

Further Away Live

  • аккорды, текст

CGCGGC Capo 5 on the 4 Low strings - Two high strings are open

Part 1
|-------*12---------*12----------|--------------------------------|
|-------*12---------*12----------|--------------------------------|
|-------*12---------*12--0-------|--------0-----------------------|
|------------------------0-------|--------0-------2---------------|
|------------------------0-------|0h2h4---0-----------4---2-p-0---|
|0---------------0-----------0---|------------0-------------------|

|-------*7----------*7-----------|--------------------------------|
|-------*7----------*7-----------|--------------------------------|
|------------------------0-------|--------0-----------------------|
|------------------------0-------|--------0-------2---------------|
|------------------------0-------|2---4---0-----------4---2-p-0---|
|4---------------4-----------4---|------------4-------------------|

|--------12----------12----------|--------------------------------|
|--------12----------12----------|--------------------------------|
|--------12----------12--0-------|--------0-----------------------|
|------------------------0-------|--------0-------2h4p2p0-2-------|
|------------------------0-------|0h2h4---0-----------------------|
|0---------------0-----------0---|------------0---------------0---|

|--------7-----------7-----------|--------------------------------|
|--------7-----------7-----------|--------------------------------|
|------------------------0-------|--------0-----------------------|
|------------------------0-------|--------0-------2---------------|
|------------------------0-------|2---4---0-----------4---2-p-0---|
|4---------------4-----------4---|------------4-------------------|

Transition
|------0-----------0-------------|------0-----------0-------------|
|------0-----------0---0---------|------0-----------0-------------|
|------0-----------0---0---------|------0-----------0---0---------|
|----------------------0---------|----------------------0---------|
|----------------------0---------|----------------------0---------|
|0-------------0-----------0-----|0-------------0-----------0-----|

 
Part 2
|--------------------------------|--------------------------------|
|--------0-----------0-----------|--------------------------------|
|------0---------0-------0-------|----0---0-----------0---0-------|
|----7---------7---------7-------|6-------6-------4-------4-------|
|------------------------0-------|--------0---------------0-------|
|7-----------6-----------6---4---|--------4---2-----------2-------|

|----------------0---------------|----------------0---------------|
|--------------------------------|--------0-----------------------|
|--------0-----------0---0-------|--------0-----------0---0-----0-|
|----2/4-4---------------4-------|----2/4-4---------------4-----4-|
|--------0---------------0-------|--------0---------------0-----0-|
|0-----------0-------------------|0-----------0-----------------0-|

Verse - Repeat Part 1 8x

Chorus
|------------0-------0-------0---|------------0-------0-------0---|
|------------0-------0-------0---|------------0-------0-------0---| 
|----0-----2-2-----4-4-----2-0---|----0-----2-2-----4-4-----2-0---|
|------------0-------0-------0---|------------0-------0-------0---| 
|----0-------2---4---4---2---0---|----0-------2---4---4---2---0---|
|0-------0-----0-------0-------0-|0-------0-----0-------0-------0-|

|----0-------0-------0-------0---|12--------------------------0---| 
|----0-------0-------0-------0---|12--------------------------0---| 
|----0-------0-------0-------0---|12--------------------------0---| 
|----7-----7-7-------7-----7-7---|----------------------------0---| 
|--0-----0---------0-----0-------|----------------------------0---| 
|7-----7-------7-6-----6-------6-|------------------------------0-|

Outro
|---12----12---------------------|----7-----7---------------------|
|---12----12---------------------|----7-----7---------------------|
|------------0-----0-0-------0---|------------0-----0-0-------0---|
|------------0---4---4---2---0---|------------0---4---4---2---0---|
|------------0-------0-----4-2-0-|------------0-------0-----4-2-0-|
|0-------0-----0-------0---------|4-------4-----4-------4---------|

|---12----12---------------------|----7-----7---------------------|
|---12----12---------------------|----7-----7---------------------|
|------------0-----0-0-------0---|------------0-------0-------0---|
|------------0---4---4---2---0---|------------0-------0---2---0---|
|------------0-------0-----4-2-0-|------------0---2-4-4-----4-2-0-|
|0-------0-----0-------0---------|4-------4-----4-------4---------|

|--------------------------------|--------------------------------|
|--------------------------------|--------------------------------|
|----0-------0-------0-------0---|------------0-------0-------0---|
|--4-4---2---0-----4-4---2---0---|--------2---0-------0-------0---|
|----0-----4-2-0-----0-----4-2-0-|--024-----4-2-0-2-4-4---2-4-4---|
|0-----0---------0-----0---------|4-----4-------4-------4-------4-|

|--------------------------------|--------------------------------|
|--------------------------------|--------------------------------|
|--4-----2---------4-----2-------|------------0-------0-------0---|
|--4-----2-4-2-0---4-----2-4-2-0-|--------2---0-------0-------0---|
|----x-----4-2-0-----x-----4-2-0-|--024-----4-2---2-4-4---2-4-4---|
|0---x-0---------0---x-0---------|4-----4-------4-------4-------4-|

|--------------------------------|--------------------------------|
|--------------------------------|--------------------------------|
|--------------------------------|------------0-------0-------0---|
|------------------------2420----|--------2---0-------0-------0---|
|--2420--24202420--2420------2420|--024-----4-2---2-4-4---2-4-4---|
|0-----0---------0-----0---------|4-----4-------4-------4-------4-|

|--------------------------------|--------------------------------|
|--------------------------------|--------------------------------|
|--------------------------------|------------0-------0-----------|
|------------------------2420----|--------2---0-------0-----------|
|--2420--24202420--2420------2420|--024-------0---4---4---4--2--0-|
|0-----0---------0-----0---------|4-----4-------4-------4---------|

|--------------------------------|--------------------------------|
|--------------------------------|--------------------------------|
|--------0---0-------0-----------|------------0-------0-----------|
|----0-----0-0-------0-----------|----0---0---0-------0-----------|
|--0---------0-----0-0---4--2--0-|--4-------4-4-----4-4---4--2--0-|
|0-----0---------0-----0---------|4-----4---------4-----4---------|

|--------------------------------|--------------------------------|
|--------------------------------|--------------------------------|
|--------0---0-------0-----------|--------------------------------|
|----0-----0-0-------0-----------|--------------------------------|
|--0---------0-----0-0---4--2--0-|--4-----------------------------|
|0-----0---------0-----0---------|4-------------------------------|

   
https://primanota.ru/ben-howard/further-away-live-chords.htm

Привет, гитарист!

Тебе подарок от сайта PrimaNota.ru

Забрать подарок
ВАМ ПОДАРКИ ОТ ПРОЕКТА
"ГИТАРНАЯ РЕВОЛЮЦИЯ"