Войти:  Facebook Google Twitter Vk Yandex Mail.ru
PrimaNota.ru - самый крупный в мире бесплатный архив песенных текстов, аккордов, табулатур и нот


Avenged Sevenfold - Sunny Disposition - таба, видео

Печатать
Просмотров: 106
Лучшая metal-группа Петербурга

Sunny Disposition

  • аккорды и текст

Авторы: Jonathan Seward, Brooks Wackerman, Zackary Baker, Brian Haner, Jr., Matthew Charles Sanders

[Intro]

e|---------------------------------------------------------------------------|
B|---------------------------------------------------------------------------|
G|---7---7-7-7-7--7s10---10s14---14s13---13-13-13-13---13---13-13-13-13------|
D|---x---x-x-x-x--x-x----x--x----x--x----x--x--x--x----x----x--x--x--x-------|
A|---5---5-5-5-7--5s8----8s-12---12s11---11-11-11-11---11---11-11-11-11------|
D|---------------------------------------------------------------------------| 

e|---------------------------------------------------------------------------|
B|---------------------------------------------------------------------------|
G|---7---7-7-7-7--7s10---10s14---14s13---13s16---16s14---14s17---------------|
D|---x---x-x-x-x--x-x----x--x----x--x----x--x----x--x----x--x----------------|
A|---5---5-5-5-7--5s8----8s-12---12s11---11s14---14s12---12s15---------------|
D|---------------------------------------------------------------------------|

************************************

| x   Dead note
| s   Slide   

************************************
Добавлено: 26.05.2018
Другие материалы по этой песне:
  • Аккорды и текст

Страница создана 26.05.2018
https://primanota.ru/avenged-sevenfold/sunny-disposition-chords.htm

Привет, гитарист!

Тебе подарок от сайта PrimaNota.ru

Забрать подарок
ВАМ ПОДАРКИ ОТ ПРОЕКТА
"ГИТАРНАЯ РЕВОЛЮЦИЯ"