Войти:  Facebook Google Twitter Vk Yandex Mail.ru
PrimaNota.ru - самый крупный в мире бесплатный архив песенных текстов, аккордов, табулатур и нот


Avenged Sevenfold - Mad Hatter - табы

Печатать
Поддержи лучшую metal-группу Петербурга!

Mad Hatter

  • аккорды, текст

Авторы: Synyster Gates, Brooks Wackerman, Johnny Christ, Zacky Vengeance, M. Shadows

2x
Clean Guitar w/chorus
e|--------------------------------------------------------------------|
B|--------------------------------------------------------------------|
G|--------------------------------------------------------------------|
D|-------2-----3-----5-----3-----2-------2-----0---------0-------0----|
A|-----0---0-----0-----0-----0-----0---0---0-----0-----0---0---0---0--|
D|---0-------0-----0-----0-----0-----0-------0-----0-5-------3--------|

e|--------------------------------------------------------------------|
B|--------------------------------------------------------------------|
G|--------------------------------------------------------------------|
D|-------2-----3-----5-----3-----2-----0-2-0-----0---------0-----0----| 
A|-----0---0-----0-----0-----0-----0---------0-----0-----0-----0-----0|
D|---0-------0-----0-----0-----0-----0---------0-----0-7-----5-----3--|


[Verse]
Distortion Guitar

e|--------------------------------------------------------------------|
B|--------------------------------------------------------------------|
G|--------------------------------------------------------------------|
D|--------------------------------------------------------------------| 3x
A|-5h-7p-5p-0----0-0-0-0-0-0----1h-3p-1p-0----0-0-0-0-0-0-------------|
D|---------------0-0-0-0-0-0------------------0-0-0-0-0-0-------------|
                Pm. . . . . .                Pm. . . . . .

e|-------------------------------------------------------|
B|-------------------------------------------------------|
G|-------------------------------------------------------|
D|-------------------------------------------------------| 
A|-5h-7p-5p-0----0-0-0-0-0-0-0-8-8~----3-3~--------------|
D|---------------0-0-0-0-0-0-0-8-8~----3-3¨--------------|
               Pm. . . . . . .          

e|--------------------------------------------------------------------|
B|--------------------------------------------------------------------|
G|--------------------------------------------------------------------|
D|--------------------------------------------------------------------| 2x
A|-5h-7p-5p-0----0-0-0-0-0-0----1h-3p-1p-0----0-0-0-0-0-0-------------|
D|---------------0-0-0-0-0-0------------------0-0-0-0-0-0-------------|
               Pm. . . . . .                Pm. . . . . . 

e|--------------------------------------------------------------------|
B|--------------------------------------------------------------------|
G|--------------------------------------------------------------------|
D|--------------------------------------------------------------------| 
A|-5h-7p-5p-0----0-0-0-0-0-0----1h-3p-1p-0----0-0-0-0-0-0---4h-6p-4p-0|
D|---------------0-0-0-0-0-0------------------0-0-0-0-0-0-------------|
              Pm. . . . . .                Pm. . . . . . 
e|--------------------------------------------------------------------|
B|--------------------------------------------------------------------|
G|--------------------------------------------------------------------|
D|--------------------------------------------------------------------| 
A|-5h-7p-5p-0----0-0-0-0-0-0----1h-3p-1p-0----0-0-0-0-0-0-------------|
D|---------------0-0-0-0-0-0------------------0-0-0-0-0-0----3-2-1-0--|
               Pm. . . . . .                Pm. . . . . . 

[Chorus]
Distortion Guitar
e|----------------------------------------------------|
B|----------------------------------------------------|
G|----------------------------------------------------|
D|-8-8-8-8-8~-----7-7~--------------------------------|
A|-6-6-6-6-6~-----5-5~--------------------------------|
D|----------------------------5~----3~----2~----1~----|

e|---------------------------------------------------------------------------|
B|-----------------------------------------------------------3-3~-----3-3~---|
G|----------------------------------------------------3~-----2-2~-----2-2~---|
D|-8-8-8-8-8~-----7-7~--------------------------------1~-----0-0~-----0-0~---|
A|-6-6-6-6-6~-----5-5~--------------------------------1~-----0-0~-----0-0~---|
D|----------------------------5~----3~----2~----1~----1~-----0-0~-----0-0~---|

Then back to the verse...


***********************************

| h   Hammer-on
| p   Pull-off
| ~   Hold Note
| Pm  Palm Mute

***********************************

From the manner of
Cutting whisper
Rising vapors through
Clouds of gold
Giving fire and
Change the demons
With undercurrents
Far too strong to haul
The sun burnt out today
Fools are dancin' in the rain
Stopped by the acid stain
And on the shelf, the jar that holds my brain
Nightfall hunts us all
From the shadows
Cynical beauty now
Lies the host
Before the flicker
There's only blackness
The end is coming
All my friends are dead
The sun burnt out today
Fools are dancin' in the rain
Stopped by the acid stain
And on the shelf, the jar that holds my brain
Rid by an empty world
Suffer the crushing weight
Madness will crawl inside
Alter the selfish stage
Feeding on the voices in my head
The unruled hedges we
Turn to someone
All those weeping will
Go unheard
Up on that once green hill
Around the mazes
And seeing the darkness
The jaws will take it slowly
The sun burnt out today
Fools are dancin' in the rain
Stopped by the acid stain
And on the shelf, the jar that holds my brain
Rid by an empty world
Suffer the crushing weight
Madness will crawl inside
Alter the selfish stage
You're feeding all the voices in my head
You're feeding all the voices in my head
They're feeding all the voices in my head
They're feeding all the voices in my head
https://primanota.ru/avenged-sevenfold/mad-hatter-chords.htm

Привет, гитарист!

Тебе подарок от сайта PrimaNota.ru

Забрать подарок
ВАМ ПОДАРКИ ОТ ПРОЕКТА
"ГИТАРНАЯ РЕВОЛЮЦИЯ"