Войти:  Facebook Google Twitter Vk Yandex Mail.ru
PrimaNota.ru - самый крупный в мире бесплатный архив песенных текстов, аккордов, табулатур и нот


Asking Alexandria - Well Be Ok - табы

Печатать
ViraMusic 2019 в Петербурге 4 апреля 2019! Скидка 10%!

Well Be Ok


==================================================================================================
                                Asking Alexandria - We'll Be OK
==================================================================================================
Drop B - BF#BEG#C#



Main Riff:                                                                  x4
|-----------------------------------------------------------------------------|
|-----------------------------------------------------------------------------|
|-----------------------------------------------------------------------------|
|-----------------------------------------------------------------------------|
|---------------------------------------8-0-3/5-------------------------------|
|-x0-0h8p0-0-0h7p0-0-0-x0-0h9p0-0-8-7-0---------------------------------------|




Verse:
Gtr1                                                                   x2 Then
|------------------------------------------------------------------------|----|
|------------------------------------------------------------------------|----|
|------------------------------------------------------------------------|----|
|------------------------------------------------------------------------|-0~~|
|--8-8-7-7-5-5------10-10-8-8-7-7------8-8-7-7-5-5------7-7-5-5-4-4-4-5--|-0~~|
|-0-0-0-0-0-0-0000-7--7--7-7-7-7-7777-5-5-5-5-5-5-5555-7-7-7-7-7-7-7-7---|-0~~|
||
Gtr2 (Second round through)
|------------------------------------------------------------------------|----|
|------------------------------------------------------------------------|----|
|------------------------------------------------------------------------|----|
|--7-7-5-5----------8-8-7-7-5-5--------7-7-5-5----------5-5--------------|-0~~|
|----------8-8---------------------------------8-8----------8-8-7-7-7-8--|-0~~|
|-0-0-0-0-0-0-0000-7-7-7-7-7-7-7777---5-5-5-5-5-5-5555-7-7-7-7-7-7-7-7---|-0~~|




Breakdown Verse:
|--------------|--------------------------------------------------------------|
|--------------|-"Remember when..."-------------------------------------------|
|-Distant------|--------------------------------------------------------------|
|-Effect-------|------------------------------------------------3-3333-3------|
|-0-0-0--0-0-0-|-0-0-0----0-0000-0------------8-0-3/5--0-0-0----0-0000-0------|
|-0-0-0--0-0-0-|-0-0-0----0-0000-0----0-8-7-0----------0-0-0----0-0000-0----5<|
||
|-----------------------------------------------------------------------------|
|-----------------------------------------------------------------------------|
|-----------------------------------------------------------------------------|
|--------------------------------------------------3-3333-3----Triplets.------|
|-0~0~0~~~-0~~0~0~0~0~~----------8-0-3/5--0-0-0----0-0000-0----0-0-0-0-0-0----|
|-0~0~0~~~-0~~0~0~0~0~~--0-8-7-0----------0-0-0----0-0000-0----1-1-1-1-1-1----|




Chorus:
Gtr1
|-----------------------------------------------------------------|
|-----------------------------------------------------------------|
|-----------------------------------------------------------------|
|-0------------10-----------7-------7~--8---------10--------------|
|-0--(x8)------10--(x8)-----8-(x6)--8~--8-(x4)----10-(x4)---------|
|-0------------10-----------7------x7~--8---------10--------------|
|
Gtr2 (changes when chords change)
|-----------------------------------------------------------------|
|-----------------------------------------------------------------|
|-10-----------12-----------14-----9----10--------12--------------|
|-x------------x------------x------x----x---------x---------------|
|-8------------10-----------12----x7----8---------10--------------|
|-----------------------------------------------------------------|



[Play Main Riff] x 4
[Play Whole Chorus]




Breakdown "I'll spill..."
|--------------------|-----------------------------------------------------------------------------------|
|--------------------|-----------------------------------------------------------------------------------|
|-Distant------------|-----------------------------------------------------------------------------------|
|-Effect--------Warp-|-0-0--0--0--0-0~~~~~~~-1--1-1---1--1-1~~~~~~--0-0--0--0--0-0~~~~~~--1--1-1-Craze---|
|-6-6--6-0--1~~~~----|-0-0--0--0--0-0~~~~~---0--0-0---0--0-0~~~~~~--0-0--0--0--0-0~~~~~~~-0--0-0---------|
|-5-5--5-1--1~~~~----|-1-1--1--1--1-1~~~~~---1--1-1---1--1-1~~~~~~--1-1--1--1--1-1~~~~~~~-1--1-1-Electro.|

"Help me"
|-------------------------------------------------------------------------------------------------------|
|-------------------------------------------------------------------------------------------------------|
|-------------------------------------------------------------------------------------------------------|
|-------------------------------------------------------------------------------------------------------|
|-00000--00000----00000--00000----00000---000-12<--00000--00000----00000--00000----00000---00000--------|
|-00000--00000----00000--00000----00000---000-12<--00000--00000----00000--00000----00000---00000--------|




Quick Interlude
Gtr1                             Gtr2 (added in lead part)
|------------------------|      |-------13-13-10-10-------13-13-10-10~~--|
|------------------------|      |-------------------10-10----------------|
|------------------------|      |-10~~~~---------------------------------|
|-0~~~~~~~~~~~~~~--------|      |-x--------------------------------------|
|-0~~~~~~~~~~~~~~~~------|      |-8~~~~~~~-------------------------------|
|-0~~~~~~~~~~~~~~~~------|      |----------------------------------------|
                                Lead part is repeated twice.




"We'll Be Ok" 
Gtr1 (strum as many times as needed)
|---------------------------------------------------------------------------------------------------------|
|---------------------------------------------------------------------------------------------------------|
|---------------------------------------------------------------------------------------------------------|
|-3------3------8------------3------5------8------------3------3------0---------3--3------5------------8--|
|-3------3------8------------3------5------8------------3------3------0---------3--3------5------------8--|
|-3------2------8------------3------5------8------------3------2------0---------2--3------5------------8--|
||
Gtr2 (octaves change with above chords)
|---------------------------------------------------------------------------------------------------------|
|---------------------------------------------------------------------------------------------------------|
|-10-----9------10-----------10-----12-----15-----------14-----9------7---------10-14-----17-----------10-|
|-x------x------x------------x------x------x------------x------x------x---------x--x------x------------x--|
|-8------7------8------------8------10-----13-----------12-----7------5---------8--12-----15-----------8--|
|---------------------------------------------------------------------------------------------------------|



Outro:
Gtr1
|---------------------|
|-6~~~~---------------|
|-5~~~~~~~~-----------|
|-3~~~~~~-------------|
|-3~~~~~~-------------|
|-3~~~~-~-------------|
||
Gtr2
|---------------------|
|---------------------|
|-14~~~~~~~~~~~~~-----|
|-x-------------------|
|-12~~~~~~~~~~~~~-----|
|---------------------|
Violins and shit




Will come back and check over again soon on a new day in case i made mistakes..
Rate and comment :)   
Другие материалы по этой песне:

https://primanota.ru/asking-alexandria/well-be-ok-chords.htm

Привет, гитарист!

Тебе подарок от сайта PrimaNota.ru

Забрать подарок
ВАМ ПОДАРКИ ОТ ПРОЕКТА
"ГИТАРНАЯ РЕВОЛЮЦИЯ"