» 
 » 
Kiss And Tell



Angels & Airwaves - Kiss And Tell - аккорды

Чайковский в рок-аранжировке! Очень необычно, послушай!
Тональность: 
0
Масштаб: 
100%
Прокрутка: 
0
Проще!
Аппликатуры
Нотный режим
Kiss And Tell
Angels & Airwaves
[ Предположительная тональность: D ]

E|------------------------|
B|--7--7------------------|
G|--7--7------------------|
D|--x--x------------------| (x7)
A|--5--5------------------|
D|------------------------|

E|------------------------|------------------------|
B|-----7------------------|-----7------------------|
G|-----7----6/76--9--11--|-----7----6/76--4--2---|
D|-----x----x/xx--x---x--|-----x----x/xx--x--0---| (x2)
A|-----5----4/54--7---9--|-----5----4/54--2--0---|
D|--0--0------------------|--0--0--------------0---|

Guitar 1
E|------------------------|------------------------||
B|------------------------|------------------------||
G|------------------------|------------------------||
D|-----5-5-4---2---0------|-----5-5-4--------------||
A|------------------------|------------4---2---0---||
D|------------------------|------------------------||
Guitar 2                                            |
E|------------------------|------------------------||
B|-----7------------------|-----7------------------||
G|-----7------------------|-----7------------------||
D|-----x------------------|-----x------------------||
A|-----x------------------|-----x------------------||
D|--5--5------------------|--5--5------------------||

E|------------------------|------------------------|
B|-----7------------------|-----7------------------|
G|-----7----6/76--9--11--|-----7----6/76--4--2---|
D|-----x----x/xx--x---x--|-----x----x/xx--x--0---| (x2)
A|-----5----4/54--7---9--|-----5----4/54--2--0---|
D|--0--0------------------|--0--0--------------0---|



************************************

| x   Dead note
| /   Slide up
|    Slide down

************************************

Lorene, love please stay a bit tonight
Call it what you like if right
Lorene love, don't you know I fell too hard?
Hearts never broke so well
Lorene, no, don't you kiss and tell
No, means no, don't you kiss and tell
No, means no, don't you kiss and tell
No, means no, don't you kiss and tell
It's a little red cherry
When you bury
Any evidence you got
If you feel a bit shallow
On the gallows
Can we try a new gunshot?
Like when kids say "never say never"
Running blind with a pair of sharp scissors
So if I'm gonna Go try this, alibi this
We are innocent but lost
it's a bit so scary
(No, no, don't you kiss and tell) it's a bit of pain
(No, no, don't you kiss and tell) it's a little like wolves at night
(No, no, don't you kiss and tell) with a bit of fear
(No, no, don't you kiss and tell) and an angry lover
(No, no, don't you kiss and tell) we can disappear
(No, no, don't you kiss and tell) but they will never let us recover
I can't let this one Go
My heart's a little bit tired
And expired
Just a coward in lift-off
It's got a little bit risky
To be happy
Tow the edge 'til we fall off
I'm living the worst way ever
Getting high while playing with fire
So if I'm gonna Go try this, satisfy this
Watch the bomb I made Go off
it's a bit so scary
(No, no, don't you kiss and tell) it's a bit of pain
(No, no, don't you kiss and tell) it's a little like wolves at night
(No, no, don't you kiss and tell) with a bit of fear
(No, no, don't you kiss and tell) and an angry lover
(No, no, don't you kiss and tell) we can disappear
(No, no, don't you kiss and tell) but they will never let us recover
it's a bit so scary
(No, no, don't you kiss and tell) it's a bit of pain
(No, no, don't you kiss and tell) it's a little like wolves at night
(No, no, don't you kiss and tell) with a bit of fear
(No, no, don't you kiss and tell) and an angry lover
(No, no, don't you kiss and tell) we can disappear
(No, no, don't you kiss and tell) but they will never let us recover
it's a bit so scary
(Woah ah oh oh oh) it's a bit of pain
(Woah ah oh oh oh) it's a little like wolves at night
(Woah ah oh oh oh) with a bit of fear
(Woah ah oh oh oh) and an angry lover
(Woah ah oh oh oh) we can disappear
(Woah ah oh oh oh) but they will never let us recover
I can't wait this one won't
Last if I don't let her Go

Angels & Airwaves - Kiss And Tell - ноты

(включить)
Другие композиции этого автора:
Другие материалы по этой песне:
  • Аккорды, текст

https://primanota.ru/angels-and-airwaves/kiss-and-tell-chords.htm

Привет, гитарист!

Тебе подарок от сайта PrimaNota.ru

Забрать подарок
ВАМ ПОДАРКИ ОТ ПРОЕКТА
"ГИТАРНАЯ РЕВОЛЮЦИЯ"