» 
 » 
Gonna Sing You My Lovesong



Abba - Gonna Sing You My Lovesong - аккорды

Чайковский в рок-аранжировке! Очень необычно, послушай!
  • аккорды, текст
Тональность: 
0
Масштаб: 
100%
Прокрутка: 
0
Проще!
Аппликатуры
Нотный режим
Gonna Sing You My Lovesong
Abba
[ Предположительная тональность: F#m ]

---------------------------------------------------------------------------
               Gonna Sing You My Lovesong - ABBA
---------------------------------------------------------------------------
Tabbed by: maguri
Tuning: Standard

ABBA
Gonna Sing You My Lovesong (1974)
(Benny Andersson/Björn Ulvaeus)

From: "Waterloo"

---------------------------------------------------------------------------
CHORDS

        E-A-D-G-B-e
Bm7/E   0-2-4-2-3-0
D/E     0-2-2-2-3-0

---------------------------------------------------------------------------

  INTRO
  A     [ Dadd9 ]  A     [ D  ]     A     [ Dadd9 ]  A       Bm7/E
  1 + 2 + 3 + 4 +  1 + 2 + 3 + 4 +  1 + 2 + 3 + 4 +  1 + 2 + 3 + 4 +
e|----------0-----|----------------|----------0-----|----------------|
B|3-2-------------|3-2-------------|3-2-------------|3-2-------------|
G|2---2-----------|2---2-----------|2---2-----------|2---2-----------|
D|2-----2-4-------|2-----2-4-------|2-----2-4-------|2-----2-4-------|
A|0---------------|0---------------|0---------------|0---------------|
E|----------------|----------------|----------------|------------0---|

CODA
  A     [ Dadd9 ]  A     [ D  ]     A     [ Dadd9 ]  A       Bm7
  1 + 2 + 3 + 4 +  1 + 2 + 3 + 4 +  1 + 2 + 3 + 4 +  1 + 2 + 3 + 4 +
e|----------0-----|----------------|----------0-----|----------------|
B|3-2-------------|3-2-------------|3-2-------------|3-2-----3-------|
G|2---2-----------|2---2-----------|2---2-----------|2---2---2-------|
D|2-----2-4-------|2-----2-4-------|2-----2-4-------|2-----2-4-------|
A|0---------------|0---------------|0---------------|0-------2-------|
E|----------------|----------------|----------------|----------------|
---------------------------------------------------------------------------

INTRO
| A [ Dadd9 ] | A [ D ] |
| A [ Dadd9 ] | A Bm7/E |


VERSE
A    D7M            E      A
 You say she's been mad at you
D         A   A/C#      Bm7       D/E       [ A ]
 Then you say you'll be patient     Mmh, mmh, mh
A        D7M          E         A
 Still I see that she makes you blue
D             A/C#          B7
 Come on, I'd give you consolation


CHORUS
      D/E         A
Gonna sing you my lovesong
      A              A/C#  D
Gonna bring you some light
               D/E  A
Wanna make you feel happy
      A           A/C#  D
Every day of your life
               D/E A
Gonna sing you my  lovesong
      A           A/C#  | D      D/C# |
Gonna make it all right
       Bm                 E
You're all I ever need my darling


VERSE
A        D7M          E     A
 Just to be where you wanna be
D        A   A/C#     Bm7       D/E         [ A ]
 So much fun we could have then     Mmh, mmh, mh
A      D7M        E    A
 To be yours for eternity
D       A/C#       B7
 What a miracle to happen


CHORUS (+ link to middle 8)
      D/E         A
Gonna sing you my lovesong
      A           A/C#  D
Wanna sing it for you
               D/E   A
Gonna give you sweet lovin'
      A           A/C#  D
Gonna give myself too
               D/E A
Wanna sing you my  lovesong
       A           A/C#  | D      D/C# |
When I think about you
  Bm                       E
I know she doesn't make it easy
       Bm7                            G#m7   C#7
'Cause you don't please her, like you please me


MIDDLE 8
F#m        G#m             C# F#m
 You're my love, you're my an-gel
F#m        G#m              C#
 You're my first, you're my last
F#m        E           A     D
 Would she care if you linger
     G
For another night
      D                        Bm
Wanna hold you tight, we could make it right


CHORUS
      D/E         A
Gonna sing you my lovesong
      A              A/C#  D
Gonna bring you some light
               D/E  A
Wanna make you feel happy
      A           A/C#  D
Every day of your life
               D/E A
Gonna sing you my  lovesong
      A           A/C#  | D      D/C# |
Gonna make it all right
  Bm                       D/E
I know she doesn't make it easy


CHORUS (+ link to coda)
      D/E         A
Gonna sing you my lovesong
      A           A/C#  D
Wanna sing it for you
               D/E   A
Gonna give you sweet lovin'
      A           A/C#  D
Gonna give myself too
               D/E A
Wanna sing you my  lovesong
       A           A/C#  D
When I think about you
       Bm                 E
You're all I ever need my darling
                         [break]
    Bm7                     E           [ A ]
And I would love to sing my lovesong for you


CODA
| A [ Dadd9 ] | A D |
                1 + 2 + 3
| A [ Dadd9 ] | A       Bm7

Abba - Gonna Sing You My Lovesong - ноты

(включить)
Другие композиции этого автора:
Другие материалы по этой песне:
  • Аккорды, текст

https://primanota.ru/abba/gonna-sing-you-my-lovesong-chords.htm

Привет, гитарист!

Тебе подарок от сайта PrimaNota.ru

Забрать подарок
ВАМ ПОДАРКИ ОТ ПРОЕКТА
"ГИТАРНАЯ РЕВОЛЮЦИЯ"