» 
 » 
Dancing Queen



Abba - Dancing Queen - аккорды

Чайковский в рок-аранжировке! Очень необычно, послушай!
  • аккорды, текст
  • gtp-табы
  • ноты
Тональность: 
0
Масштаб: 
100%
Прокрутка: 
0
Проще!
Аппликатуры
Нотный режим
Dancing Queen
Abba
[ Предположительная тональность: G ]

---------------------------------------------------------------------------
                Dancing Queen - ABBA
---------------------------------------------------------------------------
Tabbed by: maguri
Tuning: Standard

ABBA
Dancing Queen (1976)
(Benny Andersson/Björn Ulvaeus/Stig Anderson)

From: "Arrival"


This is difficult territory. To me the | D7 G/D G/D  | part (verse)
sounds close the way I tabbed it. The chord names, however, do not
really fit, which becomes obvious once they are transposed. Their
counterparts in different keys do not work.

Suggestions and corrections are highly welcome - looking forward
to ways of solving this puzzle!

---------------------------------------------------------------------------

capo: 2nd fret
play: G
key: A

---------------------------------------------------------------------------

VERSE
  G                C/G              G                Em
  1 + 2 + 3 + 4 +  1 + 2 + 3 + 4 +  1 + 2 + 3 + 4 +  1 + 2 + 3 + 4 +
e|3---------------|3---------------|3---------------|0----------3-2--|
B|0---------------|1---------------|0---------------|0----------0-0--|
G|0---------------|0---------------|0---------------|0----------0-0--|
D|0---------------|2---------------|0---------------|2----------0-0--|
A|----------------|----------------|----------------|2---------------|
E|3---------------|3---------------|3---------------|0---------------|

  D7 G/D G/D       D7 G/D G/D       D  Em  Em        D  Em  Em
  1 + 2 + 3 + 4 +  1 + 2 + 3 + 4 +  1 + 2 + 3 + 4 +  1 + 2 + 3 + 4 +
e|-----------3-2--|----------------|---0---0--------|---0---0--------|
B|1--3---3---0-0-3|1--3---3--------|3--0---0--------|3--0---0--------|
G|2--0---0---0-0-0|2--0---0--------|2--0---0--------|2--0---0--------|
D|0--0---0---0-0-0|0--0---0--------|0--2---2--------|0--2---2--------|
A|----------------|----------------|----------------|----------------|
E|----------------|----------------|----------------|----------------|

---------------------------------------------------------------------------
CHORDS

        E-A-D-G-B-e
G       3-x-0-0-0-3
C/G     3-x-2-0-1-3
D/F#    2-x-0-2-x-x
A/C#    x-4-2-2-2-x
Csus2   x-3-5-5-3-3
Csus2/A x-0-5-5-3-3
C/E     x-x-2-0-1-0
G/D     x-x-0-0-0-3

---------------------------------------------------------------------------

INTRO
| G | C/G | G | C/G |
| G | C/G | G   D/F# | C/E G/D |


CHORUS (part)
D              B7
You can dance, you can jive
Em                      A/C#
Having the time of your life
                 Csus2          Csus2/A
Oooh, ooh, ooh - See that girl, watch that scene
            G
Diggin' the dancing queen


INTERLUDE
| 1 + 2 + 3 + 4 + | 1 + 2 + 3 + 4 + |
  G                 C/G

| 1 + 2 + 3 + 4 + | 1 + 2 + 3 + 4 + |
  G         C/G     G         C/G


VERSE
G                                  C/G
Friday night and the lights are low
G                             Em
Looking out for a place to go
D7         G/D      G/D
Where they play the right music
D7      G/D    G/D
Getting in the swing
            D    Em    Em   | D  Em  Em    |
You come to look for a king


VERSE
G                        C/G
Anybody could be that guy
G                                  Em
Night is young and the music's ... high
D7            G/D  G/D
With a bit of rock music
D7   G/D      G/D
Everything is fine
              D    Em    Em   | D  Em  Em    |
You're in the mood for a dance


BRIDGE
             Am            D
And when you get the cha-a-ance


CHORUS
D7          G
You are the dancing queen
C/G                   G         | C/G |
Young and sweet, only seventeen
G
Dancing queen
C/G                    G           D/F# | C/E G/D |
Feel the beat from the tambourine, oh   yeah
D              B7
You can dance, you can jive
Em                      A/C#
Having the time of your life
                 Csus2          Csus2/A
Oooh, ooh, ooh - See that girl, watch that scene
           |     G     |     C/G      |
Diggin' the dancing queen


INTERLUDE
| 1 + 2 + 3 + 4 + | 1 + 2 + 3 + 4 + |
  G                 C/G

| 1 + 2 + 3 + 4 + | 1 + 2 + 3 + 4 + |
  G         C/G     G         C/G


VERSE
G                               C/G
You're a teaser, you turn 'em on
G                                     Em
Leave 'em burning and then you're ... gone
D7      G/D G/D
Looking out for another,
D7 G/D      G/D
Anyone will do
              D    Em    Em   | D  Em  Em    |
You're in the mood for a dance


BRIDGE
             Am      D
And when you get the chance


CHORUS
D7          G
You are the dancing queen
C/G                   G         | C/G |
Young and sweet, only seventeen
G
Dancing queen
C/G                    G           D/F# | C/E G/D |
Feel the beat from the tambourine, oh   yeah
D              B7
You can dance, you can jive
Em                      A/C#
Having the time of your life
                 Csus2          Csus2/A
Oooh, ooh, ooh - See that girl, watch that scene
           |     G     |     C/G      |  G  |  C/G  |
Diggin' the dancing queen
           |     G     |     C/G      |  G  |  C/G  |
Diggin' the dancing queen


OUTRO
|  G  |  C/G  |  G  |  C/G  |

(repeat and fade)

Abba - Dancing Queen - ноты

(включить)
Другие композиции этого автора:
Другие материалы по этой песне:

https://primanota.ru/abba/dancing-queen-chords.htm