PrimaNota.ru - самый крупный в мире бесплатный архив песенных текстов, аккордов, табулатур и нот


Zombies - Indication - текст песни, бас-таба, видео

Регистрация Запомнить меня
Войти через:  Facebook Google Twitter Vk Yandex Mail.ru

Zombies - Indication - текст песни, бас-таба, видео

Печатать
Просмотров: 73
Tabbed by: 6METAL6BASSIST6
E-mail: petergriffinav@gmail.com

Tuning: EADG

G|------------------------------------------------------------------------|
D|------------------------------------------------------------------------|
A|------------------------------------------------------------------------|
E|------------------------------------------------------------------------|

G|----------------------------------------------------------------|
D|----------------------------4-----------------------------------|
A|------------0---2---4---5---------------------------------------|
E|0---2---4-----------------------0-------0-----------------------|

0:08

G|------------2---------------------------------------------------|
D|--------2-----------5---2---------------------------------------|
A|0---4-----------------------4---5-------5-------0---5---3---2---|
E|----------------------------------------------------------------|

G|------------2---------------------------------------------------|
D|--------2---------------2---------------------------------------|
A|0---4-----------------------4---5-------5-------0---5---3---2---|
E|----------------------------------------------------------------|

G|----------------------------------------------------------------|
D|----------------------------------------------------------------|
A|0---------------------------------------------------------------|
E|----------------------------------------------------------------|

G|--------------------------------|
D|--------------------------------|
A|7---7---7---7---7---7---7---7---|
E|--------------------------------|

0:18

G|----------------------------------------------------------------|
D|7---7---7---7---7---7---7---7---7---7---7---7---7---7---7---7---|
A|----------------------------------------------------------------|
E|----------------------------------------------------------------|

G|----------------------------------------------------------------|
D|----------------------------------------------------------------|
A|10--10--10--10--10--10--10--10--10--10--10--10--10--10--10--10--|
E|----------------------------------------------------------------|

G|----------------------------------------------------------------|
D|----------------------------------------------------------------|
A|9---9---9---9---9---9---9---9---9---9---9---9---9---9---9---9---|
E|----------------------------------------------------------------|

G|----------------------------------------------------------------|
D|----------------------------------------------------------------|
A|8---8---8---8---8---8---8---8-----------------------------------|
E|----------------------------------------------------------------|

0:32

G|------------2---------------------------------------------------|
D|--------2-----------5---2---------------------------------------| x2
A|0---4-----------------------4---5-------5-------0---5---3---2---|
E|----------------------------------------------------------------|

G|----------------------------------------------------------------|
D|----------------------------------------------------------------|
A|0---------------------------------------------------------------|
E|----------------------------------------------------------------|

G|--------------------------------|
D|--------------------------------|
A|7---7---7---7---7---7---7---7---|
E|--------------------------------|

0:42

G|----------------------------------------------------------------|
D|7---7---7---7---7---7---7---7---7---7---7---7---7---7---7---7-/-|
A|----------------------------------------------------------------|
E|----------------------------------------------------------------|

G|----------------------------------------------------------------|
D|----------------------------------------------------------------|
A|10--10--10--10--10--10--10--10--10--10--10--10--10--10--10--10--|
E|----------------------------------------------------------------|

G|----------------------------------------------------------------|
D|----------------------------------------------------------------|
A|9---9---9---9---9---9---9---9---9---9---9---9---9---9---9---9---|
E|----------------------------------------------------------------|

G|----------------------------------------------------------------|
D|----------------------------------------------------------------|
A|8---8---8---8---8---8---8---8---7-----------7-----------7-------|
E|----------------------------------------------------------------|

0:54

G|----------------------------------------------------------------|
D|--------------------------------7---5-------7---5-------7-------|
A|5---3---2---5---3---2---5---3-----------7-----------7-------7---|
E|----------------------------------------------------------------|

G|----------------------------------------------------------------|
D|--------------------------------7---5-------7---5-------5-------|
A|5---3---2---5---3---2---5---------------7-----------7-------7---|
E|----------------------------------------------------------------|

G|----------------------------------------------------------------|
D|----------------------------------------------------------------|
A|2---2---2---2---2---2---2---2---4---4---4---4---4---4---4---4---|
E|----------------------------------------------------------------|

G|----------------------------------------------------------------|
D|----------------------------------------------------------------|
A|5---5---5---5---5---5---5---5-----------2---2---5---6---7-------|
E|----------------------------------------------------------------|

G|--------------------------------|
D|--------------------------------|
A|--------------------------------|
E|--------------------------------|

1:08

G|------------2---------------------------------------------------|
D|--------2-----------5---2---------------------------------------| x2
A|0---4-----------------------4---5-------5-------0---5---3---2---|
E|----------------------------------------------------------------|

G|----------------------------------------------------------------|
D|----------------------------------------------------------------|
A|0---------------------------------------------------------------|
E|----------------------------------------------------------------|

G|--------------------------------|
D|--------------------------------|
A|7---7---7---7---7---7---7---7---|
E|--------------------------------|

1:19

G|----------------------------------------------------------------|
D|7---7---7---7---7---7---7---7---7---7---7---7---7---7---7---7---|
A|----------------------------------------------------------------|
E|----------------------------------------------------------------|

G|----------------------------------------------------------------|
D|----------------------------------------------------------------|
A|10--10--10--10--10--10--10--10--10--10--10--10--10--10--10--10--|
E|----------------------------------------------------------------|

G|----------------------------------------------------------------|
D|----------------------------------------------------------------|
A|9---9---9---9---9---9---9---9---9---9---9---9---9---9---9---9---|
E|----------------------------------------------------------------|

G|----------------------------------------------------------------|
D|----------------------------------------------------------------|
A|8---8---8---8---8---8---8---8---7-----------7-----------7-------|
E|----------------------------------------------------------------|

1:32

G|----------------------------------------------------------------|
D|7---7---7---7---7---7---7---7---7---7---7---7---7---7---7---7---|
A|----------------------------------------------------------------|
E|----------------------------------------------------------------|

G|----------------------------------------------------------------|
D|----------------------------------------------------------------|
A|10--10--10--10--10--10--10--10--10--10--10--10--10--10--10--10--|
E|----------------------------------------------------------------|

G|----------------------------------------------------------------|
D|----------------------------------------------------------------|
A|9---9---9---9---9---9---9---9---9---9---9---9---9---9---9---9---|
E|----------------------------------------------------------------|

G|------------------------------------9-------9---9---9---9---9---|
D|----------------------------------------------------------------|
A|8---8---8---8---8---8---8---8---7-------7-----------------------|
E|----------------------------------------------------------------|

1:46

G|----------------------------------------------------------------|
D|----------------------------------------------------------------| x11
A|0---0---0---0---0---0---0---0---0---0---0---0---0---0---0---0---|
E|----------------------------------------------------------------|



     No bass 2:20-2:45.


2:45

G|----------------------------------------------------------------|
D|--------7---7---7---5---5---5---3---3---------------------------|
A|0---0-----------------------------------5---5---5---7---7---7---|
E|----------------------------------------------------------------|

G|----------------------------------------------------------------|
D|--------7-----------5-----------3---3---------------------------|
A|7---7-----------------------------------5-----------7-----------|
E|----------------------------------------------------------------|
Добавлено: 15.02.2016
Другие материалы по этой песне:
  • Аккорды и текст

Страница создана 04.05.2012
http://primanota.ru/zombies/indication-chords.htm
Привет, Гость.
Предлагаем пройти революционный курс по гитаре.
Подарок от PrimaNota.Ru, забирай!