PrimaNota.ru - самый крупный в мире бесплатный архив песенных текстов, аккордов, табулатур и нот


Zakk Wylde - The Color Green - текст песни, таба, видео

Регистрация Запомнить меня
Войти через:  Facebook Google Twitter Vk Yandex Mail.ru

Zakk Wylde - The Color Green - текст песни, таба, видео

Печатать
Просмотров: 169
Intro
e-------5------------------------------------------------------------0-|
b----------7------8----------7----------5--------------------------0---|
g-------------7-------7---------7------------7---------7-------4/5-----|
d----0-------------------0----------0------------0----------0----------|
a----------------------------------------------------------------------|
e----------------------------------------------------------------------|

e--------0-------------------------------------------------------------|
b-----0------------0---------0-----------------------------------------|
g--4------------4---------0--------------------------------------------|
d------------5---------4------------------0—-2/4---0-------------------|
a--------------------------------0—-2/3--------------------------------|
e----------------------------------------------------------------------|

Versex2
e------0-2-2-2-3-2----------------3----3-3----3----0-2-2-2-3-2-2-2-0-2-|
b------3-3-3-3-3-3----------------3----3-3----3----3-3-3-3-3-3-3-3-3-3-|
g------2-2-2-2-2-2----------0--0--0----0-0----0----2-2-2-2-2-2-2-2-2-2-|
d-0-0--0-0-0-0-0-0--------2--0----0----0-2----0----0-0-0-0-0-0-0-0-0-0-|
a-------------------0-2-3--2------2----0-3----2------------------------|
e---------------------------------3-----------3------------------------|

e-0---0-2-2-2-3-2-2-2-0-2--|---------0----------0----------------------|
b-0---3-3-3-3-3-3-3-3-3-3--|----3------3----3-----3----3-----3---------|
g-2---2-2-2-2-2-2-2-2-2-2--|------0-----------0------0---------2-------|
d-3---0-0-0-0-0-0-0-0-0-0--|------------------------------0------------|
a--------------------------|--1-----------0----------------------------|
e--------------------------|-------------------------------------------|

e--0-2-----3-2-----0-2-------------------------------------------------|
b--3-3-3---3-3-3---3-3-------------------------------------------------|
g--------2-------2-----------------------------------------------------|
d----------------------------------------------------------------------|
a----------------------------------------------------------------------|
e----------------------------------------------------------------------|
Добавлено: 26.07.2013
Другие материалы по этой песне:
  • Аккорды и текст

Страница создана 30.07.2012
http://primanota.ru/zakk-wylde/the-color-green-chords.htm
Привет, Гость.
Предлагаем пройти революционный курс по гитаре.
Подарок от PrimaNota.Ru, забирай!