PrimaNota.ru - самый крупный в мире бесплатный архив песенных текстов, аккордов, табулатур и нот


Zakk Wylde - Blood In The Wall - таба, видео

Регистрация Запомнить меня
Войти через:  Facebook Google Twitter Vk Yandex Mail.ru

Zakk Wylde - Blood In The Wall - таба, видео

Печатать
Просмотров: 169
zakk wylde
blood in the wall


Intro/Verse
                              1.                             2.

||------0-0--0-3--3-3-0--3-3-------3--3-3--3-3------------||-3---------------|
||o-0h1-1-1--1-1--1-1-1--1-1-------3--3-3--3-3-----------o||-3------3-------0|
||--2---2-2--2-2--2-2-2--2-2-------0--0-0--0-0--------0---||-0--2s4---4s2-0--|
||--2---2-2--2-2--2-2-2--2-2-------0--0-0--0-0------0-----||-0---------------|
||o-0---0-0--0-0--0-0-0--0-0--2-2--2--2-2--2-2--0h2------o||-2--------------o|
||----------------------------3-3--3--3-3--3-3------------||-3---------------|



solo melody thing
|------------------------------------------|
|------------------------------------------|
|------------------------------------------|
|-7---9b10r=(9)---(9)---7---9b10r=9--\5----|
|------------------------------------------|
|------------------------------------------|


Chorus

|-0--0-0--0-3--3-3--0--0-0---0-0-0-0----|
|-1--1-1--1-3--3-3--0--0-0---1s3s1-0----|
|-0--0-0--0-0--0-0--0--0-0---2s4s2-0----|
|-2--2-2--2-0--0-0--2--2-2-2------------|
|-3--3-3--3-2--2-2--2--2-2-2------------|
|-----------3--3-3--0--0-0-0------------|


Pre-Solo and Solo Riff

||-------------------------------------------------------------------||-|
||o-----------------------------------------------------------------o||-|
||------0-------0-------0-------0-------0-------0-------0-------0----||-|
||----4---4---4---4---4---4---4---4---2---2---2---2---2---2---2---2--||-|
||o-5-------5-------5-------5-------3-------3-------3-------3-------o||-|
||-------------------------------------------------------------------||-|


Intro-2 Times
Verse-2 Times
Chorus-4 Times
Verse-3 Times
Chorus-4 Times
Pre-Solo-4 Times
Solo-8 Times
Verse-2 Times
Добавлено: 22.06.2013
Другие материалы по этой песне:
  • Аккорды и текст

Страница создана 22.06.2013
http://primanota.ru/zakk-wylde/blood-in-the-wall-chords.htm
Привет, Гость.
Предлагаем пройти революционный курс по гитаре.
Подарок от PrimaNota.Ru, забирай!