PrimaNota.ru - самый крупный в мире бесплатный архив песенных текстов, аккордов, табулатур и нот


Zakk Wylde - Bring The Noise 20xx - таба, видео

Регистрация Запомнить меня
Войти через:  Facebook Google Twitter Vk Yandex Mail.ru

Zakk Wylde - Bring The Noise 20xx - таба, видео

Печатать
Просмотров: 208
There was no tabs of this so i gave it my best go so please don't hurt me :p


Main Riff

e|---------------------------------------------------------------|
B|---------------------------------------------------------------|
G|---------------------------------------------------------------|
D|-4--4--2--4---4--4---4--2--4---4--4---4--2--4---4--------------|
A|-4--4--2--4---4--4---4--2--4---4--4---4--2--4---4--------------|
E|-2--2--0--2---2--2---2--0--2---2--2---2--0--2---2--------------|
                x  x             x  x             x
e|---------------------------------------------------------------|
B|---------------------------------------------------------------|
G|-4-2------------4--4--2--4---4--4---4--2--4---4--4---4--2--4---|
D|-----4-3-2-0----4--4--2--4---4--4---4--2--4---4--4---4--2--4---|
A|----------------2--2--0--2---2--2---2--0--2---2--2---2--0--2---|
   x x x x x x                 x  x             x  x
e|---------------------------------------------------------------|
B|---------------------------------------------------------------|
G|-----5+--------------------------------------------------------|
D|-4----------6---6-6-6-6-6----8---8-8-8-8-8---------------------|
A|-4----------6---6-6-6-6-6----8---8-8-8-8-8---------------------|
E|-2----------4---4-4-4-4-4----6---6-6-6-6-6---------------------|
   x              x x x x x        x x x x x
e|---------------------------------------------------------------|
B|---------------------------------------------------------------|
G|-----------------------------------------------------5+--------|
D|-4--4--2--4---4--4---4--2--4---4--4---4--2--4---4--------------|
A|-4--4--2--4---4--4---4--2--4---4--4---4--2--4---4--------------|
E|-2--2--0--2---2--2---2--0--2---2--2---2--0--2---2--------------|
                x  x             x  x             x

Verse
e|---------------------------------------------------------------|
B|---------------------------------------------------------------|
G|-9-9-9-9-11-11-11-11-12-12-12-17-17-16-16-16-------------------|
D|---------------------------------------------------------------|  x3
A|---------------------------------------------------------------|
E|---------------------------------------------------------------|

Then back to main riff
Enjoy!


| /  slide up
| \  slide down
| h  hammer-on
| p  pull-off
| ~  vibrato
| +  harmonic
| x  Mute note
Добавлено: 31.07.2013
Другие материалы по этой песне:
  • Аккорды и текст

Страница создана 31.07.2013
http://primanota.ru/zakk-wylde/bring-the-noise-20xx-chords.htm
Привет, Гость.
Предлагаем пройти революционный курс по гитаре.
Подарок от PrimaNota.Ru, забирай!