PrimaNota.ru - самый крупный в мире бесплатный архив песенных текстов, аккордов, табулатур и нот


Yoko Shimomura - A Walk In Andante - таба, видео

Регистрация Запомнить меня
Войти через:  Facebook Google Twitter Vk Yandex Mail.ru

Yoko Shimomura - A Walk In Andante - таба, видео

Печатать
Просмотров: 85
A Walk in Andante
KINGDOM HEARTS II
Composer YOKO SHIMOMURA
Standard Tuning

INTRO

BASS(Play along til Verse begins)

|------------------------------|
|----6---6---6---6---6---6---6-|
|--4---4---4---4---4---4---4---|
|------------------------------|

|-------------------------------------------|
|-------------------------------------------|
|--13-12-8-10-13-12-8-10-13-12-8-10-13-8-10-|
|-------------------------------------------|
|-------------------------------------------|
|-------------------------------------------|



Verse

|--------------------------8---------6----------------8-|
|--9-6h8-9---6-8-6h8-9---6---9-6h8-9----6-8-6h8-9---6---|
|----------8-----------8--------------------------8-----|
|-------------------------------------------------------|
|-------------------------------------------------------|
|-------------------------------------------------------|

Chorus

|--------------------6---------------8-6-------|
|--9-6h8-9-6h8-9-9-6---8-9-6h8-9---6------9--6-|
|---------------------------------8------------|
|----------------------------------------------|
|----------------------------------------------|
|----------------------------------------------|


Repeat Endlessly
Добавлено: 02.06.2013
Другие материалы по этой песне:
  • Аккорды и текст

Страница создана 02.06.2013
http://primanota.ru/yoko-shimomura/a-walk-in-andante-chords.htm
Привет, Гость.
Предлагаем пройти революционный курс по гитаре.
Подарок от PrimaNota.Ru, забирай!