PrimaNota.ru - самый крупный в мире бесплатный архив песенных текстов, аккордов, табулатур и нот


Yoko Shimomura - Kens Theme Super Streetfighter Ii - таба, видео

Регистрация Запомнить меня
Войти через:  Facebook Google Twitter Vk Yandex Mail.ru

Yoko Shimomura - Kens Theme Super Streetfighter Ii - таба, видео

Печатать
Просмотров: 97
e---------------------------------|
B---------------------------------|
G---------------------------------|
D--10-----8s10--8---8-------------|
A--8------6s8---6---6---11--11----|
E-----------------------9---9-----|

And this is the main theme.

e---------------------------------------------------|
B--------11-9----------------------11-9-------------|
G-----10------12-10----10-------10------12-10----10-|
D--10----------------13-------10---------------13---|
A---------------------------------------------------|
E---------------------------------------------------|

e-----------------------------------------------------|
B--------11-13--14-13-----------13--------------------|
G-----10--------------15--13-15----15---13--13--12-12-|
D--10-------------------------------------------------|
A-----------------------------------------------------|
E-----------------------------------------------------|

e---------------------------------------------------|
B--------11-9--------------------11-9---------------|
G-----10------12-10----10------10------12-10-----10-|
D--10----------------13------10----------------13---|
A---------------------------------------------------|
E---------------------------------------------------|

e-----------------------------------------------------|
B--------11-13--14-13------------13-------------------|
G-----10--------------15--13-12-----15--13-12--13-12--|
D--10-------------------------------------------------|
A-----------------------------------------------------|
E-----------------------------------------------------|

e--------------------------------------------------|
B---------------11--------------13-------11h13-----|
G--10---12---13-----13-12-10-----------------------|
D----------------------------13--------------------|
A--------------------------------------------------|
E--------------------------------------------------| x2

e-----------------------------------------------------|
B--------11-13--11------------------------------------|
G-----10-----------13--12-13--12-10-----10---10-12-13-|
D--10--------------------------------13---------------|
A-----------------------------------------------------|
E-----------------------------------------------------|

e---------------------------------------------------------------|
B--11--------11--11--------------------------13-13-13-13-13-13--|
G-----13--12--------13--12--13-12---10-9--10--------------------|
D---------------------------------------------------------------|
A---------------------------------------------------------------|
E---------------------------------------------------------------|

e------------------------------------------------------------|
B--13--11-----11---------------------------------------------|
G---------13-----13--12--10-----13--12-10-----10---10-12-13--|
D----------------------------13-----------13-----------------|
A------------------------------------------------------------|
E------------------------------------------------------------|

e----------------------------------------|
B--11--13--14-13--13-11------------------|
G-----------------------13------12---10--|
D--------------------------14------------|
A----------------------------------------|
E----------------------------------------|

Repeat
Добавлено: 14.12.2015
Другие материалы по этой песне:
  • Аккорды и текст

Страница создана 14.12.2015
http://primanota.ru/yoko-shimomura/kens-theme-super-streetfighter-ii-chords.htm
Привет, Гость.
Предлагаем пройти революционный курс по гитаре.
Подарок от PrimaNota.Ru, забирай!