PrimaNota.ru - самый крупный в мире бесплатный архив песенных текстов, аккордов, табулатур и нот


Yngwie Malmsteen - Like An Angel - текст песни, таба, видео

Регистрация Запомнить меня
Войти через:  Facebook Google Twitter Vk Yandex Mail.ru

Yngwie Malmsteen - Like An Angel - текст песни, таба, видео

Печатать
Просмотров: 280
Авторы музыки: Yngwie J. Malmsteen

Yngwie Malmsteen
Like An Angel

0:29   ~        ~
||-----------------------------------------------------------|
||-----------------------------------------------------------|
||-13---13\11--11/13--13b-----b13-11---\9--9/11---11\9--9/11-|
||-----------------------------------------------------------|
||-----------------------------------------------------------|
||-----------------------------------------------------------|
       ~
------------------------------------------------------------|
-----------------------------------12/14----16--17--17/19---|
--13b--b13----------------------13--------------------------|
------------14--13b-(13)b--1114-----------------------------|
------------------------------------------------------------|
------------------------------------------------------------|
  ~  ~    ~
------------1617-------------1718----20--21--(21)b21--------|
------161719-----------171820-------------------------------|
--1718-------------1819-------------------------------------|
------------------------------------------------------------|
------------------------------------------------------------|
------------------------------------------------------------|
       ~
--16b--b16-14---------------------------------------------||
--------------17-16-14------------------------------------||
----------------------------------------------------------||
----------------------------------------------------------||
----------------------------------------------------------||
----------------------------------------------------------||


||----------------------------------------------------------|
||--------4-------------4-----------------------------------|
||o-----5----5--------4----4----------6-------------4-------|
||o---5----5---5----4----4---4------6----6--------4----4----|
||--4------------(4)-------------4-----4---4---4-----4---4--|
||----------------------------------------------------------|
  1. I've been searching for you for so long...

         (1st ending)
----------------------------||------------------------------|
----------------------------||----------5-4-5-7p5-4-5-------|
------2-------------2------o||----4------------------6------|
----2----2--------4----4---o||--6---6-----------------6-----|
-4-----4---4---4-----4---4--||4-------4----------------7-6-4|
----------------------------||------------------------------|

(2nd ending)
|---------------------------|
|-\-------------------------|
|---\-----(pick slide)------|
|-\---\---------------------|
|---\---\-------------------|
|-----\---------------------|

     pm    pm  pm..
|------------------------------------------------------------|
|------------------------------------------------------------|
|------------------------------------------------------------|
|---------2-----4-----4-----4-----4-----------2----4--------6|
|--2------2-----4---4-4---4-4-4-4-4------6----2----4---6----6|
|--2------0-----2---2-2---2-2-2-2-2------6----0----2---6----4|
|--0-------------------------------------4-------------4-----|
 Like and angel you came to me...


    ~       ~
|--16----16\14--14/16--16b------16b--b16--14----14--------14--|
|--------------------------------------------17------\17------|
|-------------------------------------------------------------|
|-------------------------------------------------------------|
|-------------------------------------------------------------|
|-------------------------------------------------------------|
       ~
-16b--b16------------------------------16-17-19/21------21b---|
-----------17--19p17-16-17----16-17-19------------------------|
---------------------------18---------------------------------|
--------------------------------------------------------------|
--------------------------------------------------------------|
--------------------------------------------------------------|

-16-17-19-17-16----17-16-17p16-17-------------16--------------|
----------------19--------------------16-17-19--19-17-16------|
--------------------------------------------------------18-16-|
--------------------------------------------------------------|
--------------------------------------------------------------|
--------------------------------------------------------------|
          ~     ~
---------------------------------------------15-16/18----20---|
------------------------16-17-19-----16-17-19-----------------|
-------------------16-18--------17-18-------------------------|
-19-18-16--16-18-19-------------------------------------------|
---------19---------------------------------------------------|
--------------------------------------------------------------|

    ~          ~
-20/21---21b-------------------------------------------------|
------------------19h21b-19-21-17-21--21--21--21--21---------|
------------------------------------20--18--17--18--18-------|
-------------------------------------------------------------|
-------------------------------------------------------------|
-------------------------------------------------------------|


Verse ( for the second ending you can just the play the
 4 6 4 6 4 twice instead of the pick slide)

Chorus

Solo

(4:17) Chorus x2

outro (The outro is pretty much the same as the intro with some
       variations...listen and you hear)
Добавлено: 10.06.2012
Другие материалы по этой песне:

Страница создана 19.03.2012
http://primanota.ru/yngwie-malmsteen/like-an-angel-chords.htm
Привет, Гость.
Предлагаем пройти революционный курс по гитаре.
Подарок от PrimaNota.Ru, забирай!