PrimaNota.ru - самый крупный в мире бесплатный архив песенных текстов, аккордов, табулатур и нот


Yngwie Malmsteen - Gimme Gimme Gimme - таба, видео

Регистрация Запомнить меня
Войти через:  Facebook Google Twitter Vk Yandex Mail.ru

Yngwie Malmsteen - Gimme Gimme Gimme - таба, видео

Печатать
Просмотров: 202
E—12s7s0---------------12-----12-------------------------------------------------14-19---19-14-------------------|
B----------------------------12---------------15---12---------------10-12~~--12-15---------------------15—12-~~--|
G--------------------9--12-------------------------------12-11-12------------------------------------------------|
D----------------------------------------------------------------------------------------------------------------|
A----------------------------------------------------------------------------------------------------------------|
E----------------------------------------------------------------------------------------------------------------|


E---------------12----12-------0~~~-------------12-----12--------0~~~--0--------12---12-------------------------------------|
B-----------12-----------12-------------------12--------------12-------------------12----------15---12--------------10-12~--|
G----9-12-------------------12---------9-12---------------------12------------12-------------------------12-11-12-----------|
D---------------------------------------------------------------------------------------------------------------------------|
A---------------------------------------------------------------------------------------------------------------------------|
E---------------------------------------------------------------------------------------------------------------------------|

E-----------14—19---19--14---------------------------12----12------------0~~~~~~~~~--|
B---12-15----------------------15—12~~---------12------------12----------------------|
G------------------------------------------------9-12---------------------12---------|
D------------------------------------------------------------------------------------|
A------------------------------------------------------------------------------------|
E------------------------------------------------------------------------------------|

maybe it didint come out right idk but if it did just put it in word tll fix it! sorry hope u can do this....
Добавлено: 27.05.2012
Другие материалы по этой песне:

Страница создана 02.05.2012
http://primanota.ru/yngwie-malmsteen/gimme-gimme-gimme-chords.htm
Привет, Гость.
Предлагаем пройти революционный курс по гитаре.
Подарок от PrimaNota.Ru, забирай!