PrimaNota.ru - самый крупный в мире бесплатный архив песенных текстов, аккордов, табулатур и нот


Yes - Solitaire - таба, видео

Регистрация Запомнить меня
Войти через:  Facebook Google Twitter Vk Yandex Mail.ru

Yes - Solitaire - таба, видео

Печатать
Просмотров: 125
Song: Solitaire
Artist: Yes (Steve Howe)
Album : Fly From Here
Tabbed by: doc pepperin


e|---------------------------------------------------------------------------|
B|--------0-----------------0-----------------0---------------- 0------------|
G|-----3-----3-----------3-----3-----------3-----3-----------3-----3---------|
D|--6-----------6-----6-----------6-----6-----------6-----6------------------|
A|---------------------------------------------------------------------------|
E|---------------------------------------------------------------------------|
                  
e|---------------------------------------------------------------------------|
B|--7-----5----------------------7--7--5-------------------------------------|
G|--------------6h7--7--6--------------------6h7--7--6-----------------------|
D|-----7-----7-------7-----7--------7-----7-------7--------------------------|
A|--0-------------0--------------0-------------------0-----------------------|
E|--------0-------------0--------------0-------0-----------------------------|

e|--2-----0----------------------2--2--0-------------------------------------|
B|--------------0h3--3--2--------------------0h3--3--2-----------------------|
G|-------------------------0--------0----------------------------------------|
D|-----0-----0-------0--------------------0-----0----------------------------|
A|---------------------------------------------------------------------------|
E|--3-----3-------3-----3--------3-----3-----3-------3-----------------------|

e|-------------------------------9--9--7---7--5--5--4------------------------|
B|--7-----5------------------------------------------------------------------|
G|--------------6h7--7--6------------------------------6---------------------|
D|-----7-----7-------7-----7--------7-----7------7---------------------------|
A|--0-------------0--------------0------------0-----0------------------------|
E|--------0-------------0--------------0-------------------------------------|

e|--14--14--12---12-10-10-10-9-----------------------------------------------|
B|---------------------------0-----------------------------------------------|
G|------0-------0---------0--0-----------------------------------------------|
D|--0-------0--------0-------0-----------------------------------------------|
A|-------------------------------------0-------------------------------------|
E|----------------------------------12\5-------------------------------------|

e|--0-2-4-5-4-2-2h4p2--------------------------------------------------------|
B|--2-3-5-7-5-3-3------5-5h7p5--3-3h5p3--2-2h3p2--0-0h2p0--------------------|
G|---------------------6-6------4-4------2-2------1-1------2-----------------|
D|---------------------------------------------------------0-----------------|
A|---------------------------------------------------------------------------|
E|---------------------------------------------------------------------------|

e|--2-4-5-7-5-4-4h5p4--2-2h4p2-----------------------------------------------|
B|--3-5-7-9-7-5-5------3-3------5-5h7p5--3-3h5p3--2-2h3p2--0-----------------|
G|------------------------------6-6------4-4------2-2------1-----------------|
D|-----------------------------------------------------------2---------------|
A|-------------------------------------------------------------2-------------|
E|---------------------------------------------------------------0-----------|

e|--4-5-7-9- 7-5-5h7p5--4-4h5p4--2-2h4p4-------------------------------------|
B|--5-7-9-10-9-7-7------5-5------3-3------5-5h7p5--3-3h5p3--2-2--------------|
G|----------------------------------------6-6------4-4------2---2------------|
D|----------------------------------------------------------------0----------|
A|---------------------------------------------------------------------------|
E|---------------------------------------------------------------------------|

e|--0-2-4-5-4-2-2h4p2--------------------------------------------------------|
B|--2-3-5-7-5-3-3------5-5h7p5--3-3h5p3--2-2h3p2--0-0h2p0-----3--------------|
G|---------------------6-6------4-4------2-2------1-1------2----2------------|
D|----------------------------------------------------0----0------0-0--------|
A|----------------0-----------------0----------------------------------------|
E|-------------------------0-----------------0-------------------------------|

e|--2-4-5-7-5-4-4h5p4--2-2h4p2-----------------------------------------------|
B|--3-5-7-9-7-5-5------3-3------5-5h7p5--3-3h5p3--2-2h3p2--0-----------------|
G|------------------------------6-6------4-4------2-2------1-----------------|
D|----------------0----------------------------------------------------------|
A|-------------------------0-----------------0-------------------------------|
E|----------------------------------0-----------------0--------0-0-----------|

e|--4-5-7-9- 7-5-5h7p5--4-4h5p4--2-2h4p4--------------------2--2--2--2-------|
B|--5-7-9-10-9-7-7------5-5------3-3------5-5h7p5--3-3h5p3--2--2--2--2-------|
G|----------------------------------------6-6------4-4------2--2--2--2-------|
D|--------------------------0-------------------------------4--4--4--4----0--|
A|-----------------------------------0----------------------4--4--4--4-------|
E|-----------------0--------------------------0-------------2--2--2--2-------|

e|--------------------2--2--2--2--------------------------2--2--2--2---------|
B|--5-5h7p5--3-3h5p3--2--2--2--2--------5-5h7p5--3-3h5p3--2--2--2--2---------|
G|--6-6------4-4------2--2--2--2--------6-6------4-4------2--2--2--2---------|
D|--------------------4--4--4--4----0---------------------4--4--4--4---------|
A|--------------------4--4--4--4--------------------------4--4--4--4---------|
E|--------------------2--2--2--2--------------------------2--2--2--2---------|

e|--4-7---4------------------------------------------------------------------|
B|------5---7-5-4-7---4---5-0----------2--4--5--4----------------------------|
G|------------------4---6--------2--4----------------------------------------|
D|----------------------------------------1--2--1----------------------------|
A|-------------------------------0--2--4-------------------------------------|
E|--0------------------------------------------------------------------------|
                                                      
e|--4-7---4---------------------------------------9------11--9--7\-----------|
B|------5---7-5-4-7---4---5-0-------------9-10-12----------------------------|
G|------------------4---6----------8-9-11----------------11--9--8\-----------|
D|-------------------------------11------------------------------------------|
A|-------------------------------0-------------------------------------------|
E|--0----------------------------------------------- +7----------------------|

e|--4-7---4-------------------------5-----7-----9-----11\12-----12-----------|
B|------5---7-5-4-7---4---5-0------------------------------------------------|
G|------------------4---6----------------------------------------------------|
D|-------------------------------4-----6-----7-----9-----11--10--------------|
A|---------------------------------------------------------------------------|
E|--0------------------------------------------------------------------------|

e|--9-12-0-9----0-----------------------------------9-10---------------------|
B|-----------12---9-12-0-9-7----------------9-10-12--------------------------|
G|---------------------------9-9-----7-9-11----------------------------------|
D|-----------------------------------0---------------------------------------|
A|--0------------------------------------------------------------------------|
E|---------------------------------------------------------------------------|

e|---------------9-10-12-------------9-10-12-14--------16-14-12----19-17-16--|
B|-------9-10-12-------------9-10-12-----------------------------------------|
G|--9-11------------------11---------------------------16-14-13----20-18-16--|
D|------------------------0--------------------------------------------------|
A|---------------------------------------------------------------------------|
E|--0---------------------------------------------0--------------------------|

e|------------------------------------------------------------------ +7------|
B|------------------------------------------------------------------ +7------|
G|------------------------------------------------------------------ +7------|
D|--2-4-6-4h6p4\2----------2-4-6-4h6p4\2------------------0--------- +7------|
A|--------0-------0-0-0----------0-------0-0-0---------4-----4------ +7------|
E|--------------------------------------------------7-----------7------------|

e|----------------- +7-------------------------------------------------------|
B|----------------- +7----------------------2--------------------2-----------|
G|----------------- +7----------------------2--------------------2-----------|
D|--------0-------- +7-------2-4-6-4h6p4\2--2-----2-4-6-4h6p4\2--2-----------|
A|-----4-----4----- +7-------------0--------0-----------0--------0-----------|
E|--7-----------7------------------------------------------------------------|

e|-----------------2-----------------2--0-2-4-2h4p2-0-----0-2-4-2h4p2-0------|
B|--0-2-3-2h3p2-0--2--0-2-3-2h3p2-0--2-----------------2------------------2--|
G|-----------------2-----------------2-----------------2------------------2--|
D|--------0--------0--------0--------0-----------------2------------------2--|
A|--------------------------------------------0--------0--------0---------0--|
E|---------------------------------------------------------------------------|

e|-----9-10-9h10p9-----7-------9-10-9h10p9----9-14-14------------------------|
B|--12-------------12--7----12-------------12--------------------------------|
G|---------------------7-------10--------------------------------------------|
D|----------0----------0-------0---------------------------------------------|
A|---------------------------------------------------------------------------|
E|---------------------------------------------------------------------------|

e|--12---12-10-9---------2--2-0---4---------5--5-3-2-------------------------|
B|---------------10-------------3---5-5--------------3-----------------------|
G|-----------------------------------------------------------4--4-2-0-2------|
D|-----------------------0------------------0--0------------------------2----|
A|--0------------------------------------------------0--0-------------0------|
E|---------------0----------------0--------------------------3---3-----------|

e|--12--12-10-9----------2--2-0-----4----------------------------------------|
B|--------------10--------------3------5-5-----------------------------------|
G|---------------------------------------------------------------------------|
D|-----------------------0--0------------------------------------------------|
A|--0---0--------------------------------------------------------------------|
E|--------------0---0---------------0----------------------------------------|

e|--7-5----9-7-----10-9------------------------------------------------------|
B|------9------10-------12-10-9-10-9-10-9------------------------------------|
G|----------------------------------------11-9----------9--------------------|
D|---------------------------------------------12-11-12---12-11-9------------|
A|---------------------------------------------------------------------------|
E|---------------------------------------------------------------------------|

e|---------------------------------------------------------------------------|
B|--7--7--5-----------------------7--7--5------------------------------------|
G|--------------6h7--7-----6------------------6h7--7-----6-------------------|
D|-----7-----7----------7-----7------7-----7----------7----------------------|
A|--0----------------------0------0----------------------0-------------------|
E|--------0-------0---------------------0-------0----------------------------|

e|--2-----0----------------------------------2-3-2-0-------------------------|
B|--------------0h3--3--2-------2p0-0--2--3----------3-2-0-------------------|
G|---------------------------------------------------------------------------|
D|-----0-----0-------0-----0--------------0----------------------------------|
A|---------------------------------------------------------------------------|
E|--3-----3-------3-----3-------3-----3-----3-3-3-3--------------------------|

e|-----------------------------9--9--7-----7--5-5-5--4-----------------------|
B|--7--7--5------------------------------------------------------------------|
G|--------------6h7--7--6-------------------------------6--------------------|
D|-----7-----7-------7-----7------7-----7---------7-----7--------------------|
A|--0-------------0------------0--------------0------0-----------------------|
E|--------0-------------0------------0---------------------------------------|

e|--14----------12----------10----------9------------------------------------|
B|---------------------------------------------------------------------------|
G|-----0-----0-----0-----0-----0-----0-----0---------------------------------|
D|--0-----0-----0-----0-----0-----0-----0-----0------------------------------|
A|---------------------------------------------------------------------------|
E|---------------------------------------------------------------------------|

e|--7-----7-----5-----5-----5-----3-----3-----3-----2-----2-----2------------|
B|----0-----0-----0-----0-----0-----0-----0-----0-----0-----0-----0----------|
G|------9-----9-----7-----7-----7-----5-----5-----5-----4-----4-----4--------|
D|--9-----9-----7-----7-----7-----5-----5-----5-----4-----4-----4------------|
A|---------------------------------------------------------------------------|
E|---------------------------------------------------------------------------|

e|---------------------------------------------------------------------------|
B|----7-----7-----5-----5-----3-----3-----2-----2-----2----------------------|
G|------0-----0-----0-----0-----0-----0-----0-----0-----0--------------------|
D|---------------------------------------------------------------------------|
A|--9-----9-----7-----7-----5-----5-----4-----4-----4-----4------------------|
E|---------------------------------------------------------------------------|

e|---------------------------------------------------------------------------|
B|---------------------------------------------------------------------------|
G|---------------- +7---------------- +7---------------- +7------------------|
D|--------0------- +7--------0------- +7--------0------- +7--------0---------|
A|-----4-----4---- +7-----4-----4---- +7-----4-----4---- +7-----4-----4------|
E|--7-----------7- +7--7-----------7- +7--7-----------7- +7--7-----------7---|



************************************

| /   slide up
| \   slide down
| h   hammer-on
| p   pull-off
| ~   vibrato
| +   harmonic
| x   Mute note
| b   Bend
| pb  Pre-bend
| br  Bend release
| pbr Pre-bend release
| brb Bend release bend

************************************
Добавлено: 01.12.2013
Другие материалы по этой песне:

Страница создана 01.12.2013
http://primanota.ru/yes/solitaire-chords.htm
Привет, Гость.
Предлагаем пройти революционный курс по гитаре.
Подарок от PrimaNota.Ru, забирай!