PrimaNota.ru - самый крупный в мире бесплатный архив песенных текстов, аккордов, табулатур и нот


Yes - The Man You Always Wanted Me To Be - бас-таба, видео

Регистрация Запомнить меня
Войти через:  Facebook Google Twitter Vk Yandex Mail.ru

Yes - The Man You Always Wanted Me To Be - бас-таба, видео

Печатать
Просмотров: 76
Yes
The Man You Always Wanted Me To Be


Intro

Gb----------------------------------------|
Db----------------------------------------|
Ab----------------------------------------|
Eb--33-33-33-33-33-33-33-33-33-33--0123---|


Verse

------------------------------------------|
-------(repeat as necessary)--------------|
------------------------------------------|
--33-33-33-33-33-33-33-0123-33-33-33--33--|


Chorus

------------------------------------------------|
------------------------------------------------|
-----2-3-455-055-055-055-0505055-04-20-055-055--|
-33---------------------------------------------|

-------------------------------------------------|
-------------------------------------------------|
-055-0505------------(Rpt. as necess.)-----------|
----------0-2-3-5-7--88888888888888887555555555--|

------------------------------------------|
------------------------------------------|
--------5-3333333-------------5-4---3-2---|
-333330----------555555333330-----------3-|

----------------------|
-------5/-12--12/-17--|
----10----------------|
--3/------------------|



Verse

---------------------------------------------------|
----------------------5----------------------------|
------------------57-7-----------------------------|
--33-33-33-33-3/57------3-33-33-33-0123-33-33--33--|


Chorus

-----------------------------------------------|
-----------------------------------------------|
----2-3-455-055-055-055-0505055-04-20-055-055--|
-33--------------------------------------------|

-----------------------------------------------------|
-----------------------------------------------------|
-055-0505----------------(Rpt. as necess.)-----------|
--------------0-2-3-5-7--88888888888888887555555555--|

-----------------------------------------------|
-----------------------------------------------|
--------5-3333333------------5554443333222220--|
-333330----------555555333330------------------|


Guitar Solo

------------------------------------------------|
-----5---57-------Repeat untill the ------------|
---57---7------------end of the song------------|
-55----5----------------------------------------|
Добавлено: 08.10.2013
Другие материалы по этой песне:
  • Аккорды и текст

Страница создана 08.10.2013
http://primanota.ru/yes/the-man-you-always-wanted-me-to-be-chords.htm
Привет, Гость.
Предлагаем пройти революционный курс по гитаре.
Подарок от PrimaNota.Ru, забирай!