PrimaNota.ru - самый крупный в мире бесплатный архив песенных текстов, аккордов, табулатур и нот


Yellowcard - Possessions - текст песни, таба, видео

Регистрация Запомнить меня
Войти через:  Facebook Google Twitter Vk Yandex Mail.ru

Yellowcard - Possessions - текст песни, таба, видео

Печатать
Просмотров: 169
-------------------------------------------------------------------------------
                             POSSESSIONS - Yellowcard
-------------------------------------------------------------------------------
Tabbed by: Punk Ruck Mike

Tuning: Standard

Ok so this is the secound track of "Midget Tossing", the bands first album. The band has 
since changed to a more "Pop Punk" sound, leaving there old hardcore punk style behind. I 
couldn't find any tabs for the album (as of dec. 17 2011), so I mad one.


Intro Guitar 1
e|---------------------------------|
B|---------------------------------|
G|---------------------------------|
D|--77777777-------55555555--------| This is the quick up and down palm muting, 
A|--xxxxxxxx-7-5-4-xxxxxxxx-2-3-2--| It sounds better this way.
E|--55555555-------33333333--------|
    ******** * * * ******** * * *
e|---------------------------------|
B|---------------------------------|
G|---------------------------------|
D|--77777777-------55555555--------|
A|--xxxxxxxx-7-5-4-xxxxxxxx-2-3-2--|
E|--55555555-------33333333--------|
    ******** * * * ******** * * *

Guitar 2
e|----------------------------------|
B|----------------------------------|
G|----------------------------------| On the second time through the intro
D|----------------------------------| The second guitar does a pick slide.
A|----------------------------------|
E|----------------------Pick-Slide--|

e|---------------------------------|
B|---------------------------------|
G|---------------------------------| 2x
D|--77777777-------55555555--------|
A|--xxxxxxxx-7-5-4-xxxxxxxx-2-3-2--|
E|--55555555-------33333333--------|


Verse Guitar 1   I don't know if guitar 2 plays this part too or not. 
e|----------------------------------|      e|-----------------3~-2~--|
B|----------------------------------|      B|------------------------|
G|-----------9-7-6------------------|      G|-----------9-7-6--------| 2x
D|--77777777-9-7-6--55555555-4-5-4--|      D|--77777777-9-7-6--------|    
A|--77777777-7-5-4--55555555-4-5-4--|      A|--77777777-7-5-4--------|
E|--55555555--------33333333-2-3-2--|      E|--55555555--------------|
                                            Its pretty oveous the 3~ 2~
                                            is just Guitar 1.
Chorus
e|------------------------|
B|------------------------|
G|--7-7-------------------| 2x I think both guitars play in the Chorus,
D|--7-7-9-777-9-5-5-7777--|    again...not shure.
A|--5-5-9-777-9-5-5-7777--|
E|------7-555-7-3-3-5555--|

e|----------------------|
B|----------------------|
G|--7-------------------| This is the quick up and dowm muting.
D|--7-9-7-7-5-55555555--|
A|--5-9-7-7-5-55555555--|
E|----7-5-9-3-33333333--|
              ********
e|------------------------|
B|------------------------|
G|--7-7-------------------|
D|--7-7-9-777-9-5-5-7777--|   
A|--5-5-9-777-9-5-5-7777--|
E|------7-555-7-3-3-5555--|


Verse Guitar 1 and 2?
e|----------------------------------|      e|-----------------3~-2~--|
B|----------------------------------|      B|------------------------|
G|-----------9-7-6------------------|      G|-----------9-7-6--------| 2x 
D|--77777777-9-7-6--55555555-4-5-4--|      D|--77777777-9-7-6--------|   
A|--77777777-7-5-4--55555555-4-5-4--|      A|--77777777-7-5-4--------|
E|--55555555--------33333333-2-3-2--|      E|--55555555--------------|


Chorus Guitar 1 and 2?
e|------------------------|
B|------------------------|
G|--7-7-------------------| 2x 
D|--7-7-9-777-9-5-5-7777--|
A|--5-5-9-777-9-5-5-7777--|
E|------7-555-7-3-3-5555--|

e|----------------------|
B|----------------------|
G|--7-------------------|
D|--7-9-7-7-5-55555555--|
A|--5-9-7-7-5-55555555--|
E|----7-5-9-3-33333333--|
              ********
e|------------------------|
B|------------------------|
G|--7-7-------------------|
D|--7-7-9-777-9-5-5-7--7--|   
A|--5-5-9-777-9-5-5-7--7--|
E|------7-555-7-3-3-5--5--|



#######################################################

                   

                   Piano solo! 


               (I love this part.)
#######################################################



Verse Guitar 1 
e|----------------------------------|      e|-----------------3~-2~--|
B|----------------------------------|      B|------------------------|
G|-----------9-7-6------------------|      G|-----------9-7-6--------| 
D|--77777777-9-7-6--55555555-4-5-4--|      D|--77777777-9-7-6--------|   
A|--77777777-7-5-4--55555555-4-5-4--|      A|--77777777-7-5-4--------|
E|--55555555--------33333333-2-3-2--|      E|--55555555--------------|


Guitar 1 and 2?
e|----------------------------------|      e|-----------------3~-2~--|
B|----------------------------------|      B|------------------------|
G|-----------9-7-6------------------|      G|-----------9-7-6--------| 2x 
D|--77777777-9-7-6--55555555-4-5-4--|      D|--77777777-9-7-6--------|   
A|--77777777-7-5-4--55555555-4-5-4--|      A|--77777777-7-5-4--------|
E|--55555555--------33333333-2-3-2--|      E|--55555555--------------|


Last Chord
e|-----|
B|-----|
G|-----|
D|--7--|
A|--7--|
E|--5--|
 
Добавлено: 03.06.2012
Другие материалы по этой песне:
  • Аккорды и текст

Страница создана 01.05.2012
http://primanota.ru/yellowcard/possessions-chords.htm
Привет, Гость.
Предлагаем пройти революционный курс по гитаре.
Подарок от PrimaNota.Ru, забирай!