PrimaNota.ru - самый крупный в мире бесплатный архив песенных текстов, аккордов, табулатур и нот


Yeah Yeah Yeahs - Cheated Hearts Bass - бас-таба, видео

Регистрация Запомнить меня
Войти через:  Facebook Google Twitter Vk Yandex Mail.ru

Yeah Yeah Yeahs - Cheated Hearts Bass - бас-таба, видео

Печатать
Просмотров: 83
-------------------------------------------------------------------------------
	            Cheated Hearts - Yeah Yeah Yeahs
-------------------------------------------------------------------------------

Tabbed By : Nightmare000r
e-mail: Nightmare000r@gmail.com

Tuning: Standard

This song is pretty simple.  Your really just backing up the guitar.  The timing is 
simple and there's only a few main riffs.  I used the Guitar tab for this song as a bassline.

The Song starts with the guitar doing a solo.  About 30 seconds in the bass part starts

@ 0.30
G|------------------|
D|------------------|
A|-0-0-0-0-0-0-12-12|
E|------------------| x7

Than for the 8th play:
G|----------------|
D|----------------|
A|-0-0-0-0-0-0-5-5|
E|----------------|

Than this twice for the next verse :
G|-----------------------------|
D|-----------------------------|
A|-0-0-0-0-0-0-0-0-0-0-0-0-0-0-|
E|-----------------------------|

G|-----------------------------|
D|-----------------------------|
A|-----------------------------|
E|-2-2-2-2-2-2-2-2-2-2-2-2-2-2-|

G|-----------------------------|
D|-----------------------------|
A|-----------------------------|
E|-0-0-0-0-0-0-0-0-0-0-0-0-0-0-|

G|-----------------------------|
D|-----------------------------|
A|-----------------------------|
E|-2-2-2-2-2-2-2-2-2-2-2-2-2-2-|

Than this @ 1:11
G|--------------------|
D|--------------------|
A|0~---2~---0~---2~---|
E|--------------------|

Than this twice at @ 1:19
G|-----------------------------|
D|-----------------------------|
A|-0-0-0-0-0-0-0-0-0-0-0-0-0-0-|
E|-----------------------------|

G|-----------------------------|
D|-----------------------------|
A|-2-2-2-2-2-2-2-2-2-2-2-2-2-2-|
E|-----------------------------|

G|---------------------------------|
D|---------------------------------|
A|-4-4-4-4-4-4-4-4-4-4-4-4-4-4-4-4-|
E|---------------------------------|

G|-----------------------------|
D|-0-0-0-0-0-0-0-0-0-0-0-0-0-0-|
A|-----------------------------|
E|-----------------------------|

Than This @ 1:47
G|-----5-5-----5-5------12-12-----------|
D|-----5-5-----5-5------12-12-----------|
A|-0-0-----0-0--------------------------|
E|------------------0-0--------0-0-----x| x4

Than this @ 2:00
G|--------------------------------------------------|
D|--------------------------------------------------|
A|-12-12-12-12-12-12-12-12--14-14-14-14-14-14-14-14-|
E|--------------------------------------------------| x5

G|--------------------------------------------------|------|
D|--------------------------------------------------|      |
A|--------------------------------------------------|      |
E|-14-14-14-14-14-14-14-14--12-12-12-12-12-12-12-12-|      |
                                                           }x4
G|--------------------------------------------------|      |
D|--------------------------------------------------|      |
A|-12-12-12-12-12-12-12-12--14-14-14-14-14-14-14-14-|      |
E|--------------------------------------------------|------|

Than @ 2:43 theres another guitar solo like in the beginning, don't play

@ 2:57
G|------------------|
D|------------------|
A|-0-0-0-0-0-0-12-12|
E|------------------| x7

Than for the 8th play:
G|----------------|
D|----------------|
A|-0-0-0-0-0-0-5-5|
E|----------------|

Than this twice for the next verse :
G|-----------------------------|
D|-----------------------------|
A|-0-0-0-0-0-0-0-0-0-0-0-0-0-0-|
E|-----------------------------|

G|-----------------------------|
D|-----------------------------|
A|-----------------------------|
E|-2-2-2-2-2-2-2-2-2-2-2-2-2-2-|

G|-----------------------------|
D|-----------------------------|
A|-----------------------------|
E|-0-0-0-0-0-0-0-0-0-0-0-0-0-0-|

G|-----------------------------|
D|-----------------------------|
A|-----------------------------|
E|-2-2-2-2-2-2-2-2-2-2-2-2-2-2-|

@3:39
G|-----5-5-----5-5------12-12-----------|
D|-----5-5-----5-5------12-12-----------|
A|-0-0-----0-0--------------------------|
E|------------------0-0--------0-0-----x| x4
Добавлено: 31.01.2014
Другие материалы по этой песне:
  • Аккорды и текст

Страница создана 31.01.2014
http://primanota.ru/yeah-yeah-yeahs/cheated-hearts-bass-chords.htm
Привет, Гость.
Предлагаем пройти революционный курс по гитаре.
Подарок от PrimaNota.Ru, забирай!