PrimaNota.ru - самый крупный в мире бесплатный архив песенных текстов, аккордов, табулатур и нот


Xandria - Nightfall - таба, видео

Регистрация Запомнить меня
Войти через:  Facebook Google Twitter Vk Yandex Mail.ru

Xandria - Nightfall - таба, видео

Печатать
Просмотров: 149
-------------------------------------------------------------------------------
                             Nightfall(intro) - Xandria
-------------------------------------------------------------------------------
Tabbed by: starkillslaye

Tuning: D Standard

Lead
d|----------------------------------------------------------------------------------------|
A|----------------------------------------------------------------------------------------|
F|-------------------------------------------------5--------------------------------------|
C|-----8---7---5-------5---7---8-------8---7---5-------8---7---8-------7---5---3----3--2--|
G|-5-5---5---5---5-5-5---5---5---5-5-5---5---5---5---5---5---5---5-3-3---3---3---3--1--0--|
D|----------------------------------------------------------------------------------------|
   * *   *   *   * * *   *   *   * * *   *   *   *   *   *   *   * * *   *   *   *

Rhythm
d|----------------------------------------------------------------------------------------|
A|----------------------------------------------------------------------------------------|
F|----------------------------------------------------------------------------------------|
C|----------------------------------------------------------------------------------------|
G|-4--4--------------------------------6--6------------------------2--2-------------4--4--|
D|-2--2--------------------------------4--4------------------------0--0-------------2--2--|
   *  *                                *  *                        *  *             

Lead
d|----------------------------------------------------------------------------------------|
A|----------------------------------------------------------------------------------------|
F|-------------------------------------------------5--------------------------------------|
C|-----8---7---5-------5---7---8-------8---7---5-------8---7---8-------7---5---3----3--2--|
G|-5-5---5---5---5-5-5---5---5---5-5-5---5---5---5---5---5---5---5-3-3---3---3---3--1--0--|
D|----------------------------------------------------------------------------------------|
   * *   *   *   * * *   *   *   * * *   *   *   *   *   *   *   * * *   *   *   *

Rhythm
d|----------------------------------------------------------------------------------------|
A|----------------------------------------------------------------------------------------|
F|----------------------------------------------------------------------------------------|
C|----------------------------------------------------------------------------------------|
G|-4-4-4-4-4-4-4-4-4-4-4-4-4-4-4-4-6-6-6-6-6-6-6-6-6-6-6-6-6-6-6-6-2-2-2-2-2-2-2-2--4--4--|
D|-2-2-2-2-2-2-2-2-2-2-2-2-2-2-2-2-4-4-4-4-4-4-4-4-4-4-4-4-4-4-4-4-0-0-0-0-0-0-0-0--2--2--|
   * * * * * * * * * * * * * * * * * * * * * * * * * * * * * * * * * * * * * * * *

************************************

| /   slide up
| \   slide down
| h   hammer-on
| p   pull-off
| ~   vibrato
| +   harmonic
| x   Mute note
| b   Bend
| pb  Pre-bend
| br  Bend release
| pbr Pre-bend release
| brb Bend release bend
| *   Palm mute

************************************
Добавлено: 17.06.2016
Другие материалы по этой песне:
  • Аккорды и текст

Страница создана 17.06.2016
http://primanota.ru/xandria/nightfall-chords.htm
Привет, Гость.
Предлагаем пройти революционный курс по гитаре.
Подарок от PrimaNota.Ru, забирай!