PrimaNota.ru - самый крупный в мире бесплатный архив песенных текстов, аккордов, табулатур и нот


The Wytches - Carnival Law - аккорды и текст, таба, видео

Регистрация Запомнить меня
Войти через:  Facebook Google Twitter Vk Yandex Mail.ru

The Wytches - Carnival Law - аккорды и текст, таба, видео

Печатать
Просмотров: 283
Carnival Law
The Wytches
Song: Carnival Law
Artist: The Wytches
Album: Gravedweller
=============================
http://www.thewytches.com
http://thewytches.tumblr.com
http://instagram.com/thewytches
http://thewytches.bandcamp.com
https://www.facebook.com/thewytches
https://soundcloud.com/thewytches
http://www.youtube.com/user/witchesmovies
https://twitter.com/thewytches
=============================
        

                                                                                      Uploaded:22/10/2014
        Tempo: 3/3

        =Intro= 

00:00   Dm  Dm 


        =Verse=

        Dm                                         G
00:04   My little lady locked me out as I wanted to say
                   A
        Oh, how you got away
            Dm                                         G
        And my little lady locked me out as I wanted to say
                  A
        I can't believe you got away
              Dm             G
        She's fine and she's doing well
               A#                        A  Dm
        And he wonders around your house at night
                  G
        And she's feeling nice
               A#                      A
        So she orders another round of see you in 

          hell                                                                                  
00:38   e-----------------------|-----------------------|
        G-----------------------|-----------------------|
        B-----------------------|-----------------------|
        D-----------------------|-----------------------|
        A-5--5-8-7--------------|-5--5-8-7--------------|
        E----------8-5--5-1-8-7-|----------8-5--5-1-8-7-|                       
                                                        
        e-----------------------|-----------------------|
        B-----------------------|-----------------------|
        G-----------------------|-----------------------|
        D-----------------------|-----------------------|
        A-5--5-8-7--------------|-5--5-8-7--------------|
        E----------8-5--5-1-8-7-|----------8-5--5-1-8-7-|

        A--5------
00:52   A  lady full of memories but he says he knows you well
                 G                                 A
        And he's been seen with a preteen from his last broken dream

            Dm
        And my lace untied itself and then ties itself back up
               G                                           A    
        At the fair ground where you parked your house but you lost her there
                  A
        And she's fine
                  A
        And she's fine
                  A
        And she's fine
                  A
        And she's fine, ohh
                  Dm        G                 A#                          A       Dm   Dm   Dm   Dm
00:26   And she's fine but not doing well and I can tell you slept in his car last  night
                  Dm        G                 A#                     A
        And she's fine but not doing well and I can tell he wants to see me in

          hell         See me in hell                                                                   
        e-----------------------|-----------------------|-----------------------|-----------------------|
        G-----------------------|-----------------------|-----------------------|-----------------------|
        B-----------------------|-----------------------|-----------------------|-----------------------|
        D-----------------------|-----------------------|-----------------------|-----------------------|
        A-5--5-8-7--------------|-5--5-8-7--------------|-5--5-8-7--------------|-5--5-8-7--------------|       
        E----------8-5--5-1-8-7-|----------8-5--5-1-8-7-|----------8-5--5-1-8-7-|----------8-5--5-1-8-7-|

                
        =Solo=
                    
02:00   e----------------------|--------------------|---------------------------------------|
        B----------------------|--------------------|---------------------------------------|
        G----------------------|--------------------|-------------------------6-7-----------|
        D----------------------|--------------------|-----------------5--7-8--------8---7---|
        A-5--------------------|---------------5h6p-|-5-------4/5-7-8-----------------------|
        E----------------------|--------------------|---------------------------------------|
        
        e---------------------------------------------------|-----------------------------------------|
        B-10p9----------------------------------------------|-----------------------------------------|
        G------10-9-7-6-----------------------------------5-|-7b--7-7-5-7b--7-7-5-7b--7-7-5-7/11b---5-|
        D---------------8--8-7--8/10-8-7--------------------|-----------------------------------------|
        A---------------------------------7/8-5---4---------|-----------------------------------------|
        E---------------------------------------------------|-----------------------------------------|

        e-------------------------------------------------|------------------------------------|
        B-------------------------------------------------|------------------------------------|
        G-7b--7-7-5-7b--7-7-5-7b--7-7-5-7/11tb\--(11)tb/r-|-5-5-5-5-5-5-7-7-7-7/8--8/11b(12)---|
        D-------------------------------------------------|------------------------------------|
        A-------------------------------------------------|------------------------------------|
        E-------------------------------------------------|------------------------------------|

        

        tb\ tremolo bar down
        tb/r tremolo bar up and then released



                               =========================================
                                Don't forget to rate! that helps a lot!
                               =========================================



····································
-f.alejandro27@gmail.com
-www.confort-reciclado.tumblr.com
-www.last.fm/user/mr_ahab
Добавлено: 29.06.2015
Другие материалы по этой песне:
  • Аккорды и текст

Страница создана 26.11.2014
http://primanota.ru/wytches/carnival-law-chords.htm
Привет, Гость.
Предлагаем пройти революционный курс по гитаре.
Подарок от PrimaNota.Ru, забирай!