PrimaNota.ru - самый крупный в мире бесплатный архив песенных текстов, аккордов, табулатур и нот


Within Temptation - Hand of Sorrow - текст песни, бас-таба, видео

Регистрация Запомнить меня
Войти через:  Facebook Google Twitter Vk Yandex Mail.ru

Within Temptation - Hand of Sorrow - текст песни, бас-таба, видео

Печатать
Просмотров: 263
Авторы музыки: Sharon den Adel, Martijn Spierenburg
Авторы текста: Sharon den Adel, Robert Westerholt
Hand Of Sorrow By Within Temptation.
5 String tuned down 2 semi tones: ADGCF
By Bertacus

INTRO

F|---------|--------|--------|---------|
C|---------|--------|--------|---------|
G|---------|--------|--------|---------|
D|-33333333|3333334~|33333333|33334~1~-|
A|---------|--------|--------|---------|

F|---------|--------|--------|---------|
C|---------|--------|--------|---------|
G|---------|--------|--------|---------|
D|-33333333|33333333|66666666|---------|
A|---------|--------|--------|33336666-|

F|---------|--------|--------|---------|
C|---------|--------|--------|---------|
G|---------|--------|--------|---------|
D|-33333333|33333333|--------|---------|
A|---------|--------|33333333|44446666-|

F|------|
C|------|
G|------|
D|-3~~~-|
A|------|


VERSE 1

F|---------|--------|--------|---------|
C|---------|--------|--------|---------|
G|---------|--------|--------|---------|
D|-33333333|33333333|--------|---------|
A|---------|--------|33333333|33333333-|

F|---------|--------|--------|---------|
C|---------|--------|--------|---------|
G|---------|--------|--------|---------|
D|-11111111|11111111|--------|---------|
A|---------|--------|33333333|44446666-|


PRE CHORUS

F|---------|--------|--------|---------|
C|---------|--------|--------|---------|
G|---------|--------|--------|---------|
D|---------|--------|33--33~~|---------|
A|-44--44~~|11--11~~|--------|33-34643-|

F|---------|--------|--------|---------|
C|---------|--------|--------|---------|
G|---------|--------|--------|---------|
D|---------|--------|--------|---------|
A|-44--44~~|11--11~~|--------|---------|


CHORUS

F|---------|--------|--------|---------|
C|---------|--------|--------|---------|
G|---------|--------|--------|---------|
D|-33333333|33333333|66666666|---------|
A|---------|--------|--------|33336666-|

F|---------|--------|--------|---------|
C|---------|--------|--------|---------|
G|---------|--------|--------|---------|
D|-33333333|33333333|--------|---------|
A|---------|--------|33333333|44446666-|

F|---------|--------|--------|---------|
C|---------|--------|--------|---------|
G|---------|--------|--------|---------|
D|-33333333|33333333|66666666|---------|
A|---------|--------|--------|33336666-|

F|---------|--------|
C|---------|--------|
G|---------|--------|
D|---------|11--11~~|
A|-44--44~~|--------|

F|---------|--------|--------|---------|
C|---------|--------|--------|---------|
G|---------|--------|--------|---------|
D|-33-33-33|-33-4~1~|33-33-33|-33-4~1~-|
A|---------|--------|--------|---------|


VERSE 2

F|---------|--------|--------|---------|
C|---------|--------|--------|---------|
G|---------|--------|--------|---------|
D|-33333333|33333333|--------|---------|
A|---------|--------|33333333|33333333-|

F|---------|--------|--------|---------|
C|---------|--------|--------|---------|
G|---------|--------|--------|---------|
D|-11111111|11111111|--------|---------|
A|---------|--------|44444444|66666666-|

F|---------|--------|--------|---------|
C|---------|--------|--------|---------|
G|---------|--------|--------|---------|
D|-33333333|33333333|--------|---------|
A|---------|--------|33333333|33333333-|

F|---------|--------|--------|---------|
C|---------|--------|--------|---------|
G|---------|--------|--------|---------|
D|-11111111|11111111|--------|---------|
A|---------|--------|33333333|44446666-|


(PRE CHORUS)

(CHORUS)

BRIDGE

F|---------|--------|--------|---------|
C|---------|--------|--------|---------|
G|---------|--------|--------|---------|
D|-33-33-33|-33-4~1~|33-33-33|-33-4~1~-|
A|---------|--------|--------|---------| X2

F|---------|--------|--------|---------|
C|---------|--------|--------|---------|
G|---------|--------|--------|---------|
D|---------|--------|--------|---------|
A|-33333333|33334-6-|33333333|33334-6--| X2

F|---------|--------|--------|---------|
C|---------|--------|--------|---------|
G|---------|--------|--------|---------|
D|-33333333|33333333|33333333|33333333-|
A|---------|--------|--------|---------|

F|---------|--------|--------|---------|
C|---------|--------|--------|---------|
G|---------|--------|--------|-5~~-----|
D|-33333333|33333333|33355566|6--------|
A|---------|--------|--------|---------|


CHORUS





INTRO
VERSE 1
PRE CHORUS
CHORUS
VERSE 2
PRE CHORUS
CHORUS
BRIDGE
CHORUS


(someone please do a guitar tab from this!)
Добавлено: 20.01.2014
Другие материалы по этой песне:

Страница создана 13.03.2012
http://primanota.ru/within-temptation/hand-of-sorrow-chords.htm
Привет, Гость.
Предлагаем пройти революционный курс по гитаре.
Подарок от PrimaNota.Ru, забирай!