PrimaNota.ru - самый крупный в мире бесплатный архив песенных текстов, аккордов, табулатур и нот


Within Temptation - Final Destination - текст песни, бас-таба, видео

Регистрация Запомнить меня
Войти через:  Facebook Google Twitter Vk Yandex Mail.ru

Within Temptation - Final Destination - текст песни, бас-таба, видео

Печатать
Просмотров: 287
Final Destination By Within Temptation.
5 String tuned down 2 semi tones: ADGCF
By Bertacus

Note: ~ represents hold note for this tab

INTRO

F|-----------------|----------------|----------------|-----------------|
C|-----------------|----------------|----------------|-----------------|
G|-----------------|----------------|----------------|-----------------|
D|-4~~44-4~~44-5424|4~~44-4~~44-542~|----------------|-----------------|
A|-----------------|----------------|5~~55-5~~55-5~4~|4~~44-7~~77-5~5~-|

F|-----------------|----------------|----------------|-----------------|
C|-----------------|----------------|----------------|-----------------|
G|-----------------|----------------|----------------|-----------------|
D|-4~~44-4~~44-4542|4~~44-4~~44-4542|----------------|-----------------|
A|-----------------|----------------|5~~55-5~~55-5~4~|4~~44-7~~77-7~~~-|


VERSE 1

F|-----------------|----------------|----------------|-----------------|
C|-----------------|----------------|----------------|-----------------|
G|-----------------|----------------|----------------|-----------------|
D|-24~24~24~2424542|24~24~24~2424542|----------------|-----------------|
A|-----------------|----------------|45~45~45~4545754|02~02~02~0202420-|

F|-----------------|----------------|----------------|-----------------|
C|-----------------|----------------|----------------|-----------------|
G|-----------------|----------------|----------------|-----------------|
D|-24~24~24~2424542|24~24~24~2424542|----------------|------2~~~~~~~~~-|
A|-----------------|----------------|45~45~45~4545754|2~~~~------------|


PRE CHORUS 1

F|---------|--------|--------|---------|
C|---------|--------|--------|---------|
G|---------|--------|--------|---------|
D|---------|--------|--------|---------|
A|-5~~~~~~~|4~~~~~~~|5~~~2~~~|4~~~~~---|


CHORUS

F|-----------------|----------------|----------------|-----------------|
C|-----------------|----------------|----------------|-----------------|
G|-----------------|----------------|----------------|-----------------|
D|-4~~44-4~~44-5424|4~~44-4~~44-542~|----------------|-----------------|
A|-----------------|----------------|5~~55-5~~55-5~4~|4~~44-7~~77-5~5~-| X2


PRE VERSE

F|-----------------|----------------|----------------|-----------------|
C|-----------------|----------------|----------------|-----------------|
G|-----------------|----------------|----------------|-----------------|
D|-4~~44-4~~44-4542|4~~44-4~~44-4542|----------------|-----------------|
A|-----------------|----------------|5~~55-5~~55-5~4~|4~~44-7~~77-7~~~-|


VERSE 2

F|-----------------|----------------|----------------|-----------------|
C|-----------------|----------------|----------------|-----------------|
G|-----------------|----------------|----------------|-----------------|
D|-24~24~24~2424542|24~24~24~2424542|----------------|-----------------|
A|-----------------|----------------|45~45~45~4545754|22~22~22~22~222~-|

F|-----------------|----------------|----------------|-----------------|
C|-----------------|----------------|----------------|-----------------|
G|-----------------|----------------|----------------|-----------------|
D|-24~24~24~2424542|24~24~24~2424542|----------------|------2~~~~~~~~~-|
A|-----------------|----------------|45~45~45~4545754|2~~~~------------|


PRE CHORUS 2

F|---------|--------|--------|---------|
C|---------|--------|--------|---------|
G|---------|--------|--------|---------|
D|---------|--------|--------|---------|
A|-55555555|44444444|55552222|4~-------|


(CHORUS)

(PRE VERSE)

BRIDGE

F|-----------------|----------------|----------------|-----------------|
C|-----------------|----------------|----------------|-----------------|
G|-----------------|----------------|----------------|-----------------|
D|-----------------|----------------|24~24~24~2424542|-----------------|
A|-02~02~02~0202420|02~02~02~0202420|----------------|24~24~24~2424542-|

F|-----------------|----------------|----------------|-----------------|
C|-----------------|----------------|----------------|-----------------|
G|-----------------|----------------|----------------|-----------------|
D|-----------------|----------------|----------------|-----------------|
A|-45~45~45~4545754|02~02~02~0202420|44~44-44~44-4444|44~44-44~44-4444-|

F|----------|
C|----------|
G|----------|
D|-4~~~~~~~-|
A|----------|

F|-----------------|----------------|----------------|-----------------|
C|-----------------|----------------|----------------|-----------------|
G|-----------------|----------------|----------------|-----------------|
D|-24~24~24~2424542|24~24~24~2424542|----------------|-----------------|
A|-----------------|----------------|45~45~45~4545754|4~2~5~4~---------|


(CHORUS)

END

F|-----------------|----------------|----------------|-----------------|
C|-----------------|----------------|----------------|-----------------|
G|-----------------|----------------|----------------|-----------------|
D|-24~24~24~2424542|24~24~24~2424542|----------------|-----------------|
A|-----------------|----------------|45~45~45~4545754|4~2~5~4~---------|

F|----------|
C|----------|
G|----------|
D|-4~~~~~~~-|
A|----------|


INTRO
VERSE 1
PRE CHORUS 1
CHORUS
PRE VERSE
VERSE 2
PRE CHORUS 2
CHORUS
PRE VERSE
BRIDGE
CHORUS
END
Добавлено: 22.09.2013
Другие материалы по этой песне:
  • Аккорды и текст

Страница создана 22.09.2013
http://primanota.ru/within-temptation/final-destination-chords.htm
Привет, Гость.
Предлагаем пройти революционный курс по гитаре.
Подарок от PrimaNota.Ru, забирай!