PrimaNota.ru - самый крупный в мире бесплатный архив песенных текстов, аккордов, табулатур и нот


Wings - Picassos Last Words - бас-таба, видео

Регистрация Запомнить меня
Войти через:  Facebook Google Twitter Vk Yandex Mail.ru

Wings - Picassos Last Words - бас-таба, видео

Печатать
Просмотров: 132
PICASSO'S LAST WORDS (DRINK TO ME);Words & Music by McCartney

TablEdited by Jan Bjorklund    jani_bjorklund@yahoo.se>
You are welcome to request for tabs!
Fingering and positions as suggested by TablEdit, please use common sense.



Tuning : E A D G 	Time Signature: 4/4

  |       |       |       |        |       |       |       |
|--------------------------------|--------------------------------|
|--------------------------------|--------------------------------|
|--------------------------------|--------------------------------|
|--------------------------------|--------------------------------|

  |       |       |       |        |       |       |       |
|--------------------------------|----------------0---------------|
|----------------0---------------|3-------------------------------|
|--------------------------------|--------------------------------|
|--------------------------------|--------------------------------|

  |       |       |       |        |       |       |       |
|--------------------------------|--------------------------------|
|--------------------------------|0-------------------------------|
|----------------2-------3-------|--------------------------------|
|--------------------------------|--------------------------------|

  |       |       |       |        |       |       |       |
|--------------------------------|2-------------------------------|
|----------------2---------------|--------------------------------|
|--------------------------------|----------------0---------------|
|--------------------------------|--------------------------------|

  |       |       |       |        |       |       |       |
|--------------------------------|--------------------------------|
|0-------------------------------|--------------------------------|
|--------------------------------|--------------------------------|
|--------------------------------|3-------------------------------|

  |       |       |       |        |       |       |       |
|--------------------------------|--------------------------------|
|--------------------------------|--------------------------------|
|--------------------------------|--------------------------------|
|--------------------------------|--------------------------------|

  |       |       |       |        |       |       |       |
|--------------------------------|--------------------------------|
|--------------------------------|--------------------------------|
|--------------------------------|--------------------------------|
|--------------------------------|--------------------------------|

  |       |       |       |        |       |       |       |
|--------------------------------|--------------------------------|
|--------------------------------|--------------------------------|
|--------------------------------|--------------------------------|
|--------------------------------|--------------------------------|

  |       |       |       |        |       |       |       |
|--------------------------------|--------------------------------|
|--------------------------------|--------------------------------|
|--------------------------------|--------------------------------|
|--------------------------------|--------------------------------|

  |       |       |       |        |       |       |       |
|--------------------------------|--------------------------------|
|--------------------------------|2-------------------------------|
|2-------------------------------|----------------2---------------|
|--------------------------------|--------------------------------|

  |       |       |       |        |       |       |       |
|--------------------------------|--------------------------------|
|--------------------------------|--------------------------------|
|2-----------------------2-------|----------------2---------------|
|--------------------------------|--------------------------------|

  |       |       |       |        |       |       |       |
|--------------------------------|--------------------------------|
|--------------------------------|------------------------2-------|
|0---------------0-------0-------|--------------------------------|
|--------------------------------|----------------3---------------|

  |       |       |       |        |       |       |       |
|--------------------------------|--------------------------------|
|--------------------------------|----------------0-------3---4---|
|2-------2---------------2-------|0-------3---4-------------------|
|--------------------------------|--------------------------------|

  |       |       |       |        |       |       |       |
|0-------------------------------|--------------------------------|
|--------------------------------|--------------------------------|
|----------------2---------------|----------------0---------------|
|--------------------------------|--------------------------------|

  |       |       |       |        |       |       |       |
|--------------------------------|0-------------------------------|
|----------------0---------------|----------------0---------------|
|--------------------------------|--------------------------------|
|3-------------------------------|--------------------------------|

  |       |       |       |        |       |       |       |
|--------------------------------|--------------------------------|
|------------------------0-------|2-------------------------------|
|--------------------------------|----------------0-------2-------|
|3-------------------------------|--------------------------------|

  |       |       |       |        |       |       |       |
|--------------------------------|--------------------------------|
|----------------0---------------|--------------------------------|
|--------------------------------|----------------2-------1-------|
|3-------------------------------|--------------------------------|

  |       |       |       |        |       |       |       |
|--------------------------------|--------------------------------|
|----------------0---------------|1-------------------------------|
|0-------------------------------|----------------1---------------|
|--------------------------------|--------------------------------|

  |       |       |       |        |       |       |       |
|1-------------------------------|--------------------------------|
|----------------1---------------|1-------------------------------|
|--------------------------------|----------------1---------------|
|--------------------------------|--------------------------------|

  |       |       |       |        |       |       |       |
|1-------------------------------|--------------------------------|
|----------------1---------------|3-------------------------------|
|--------------------------------|----------------3---------------|
|--------------------------------|--------------------------------|

  |       |       |       |        |       |       |       |
|--------------------------------|----------------0-------2-------|
|----------------0---------------|3-------------------------------|
|1-------------------------------|--------------------------------|
|--------------------------------|--------------------------------|

  |       |       |       |        |       |       |       |
|----------------0---------------|--------------------------------|
|--------------------------------|--------------------------------|
|--------------------------------|--------------------------------|
|--------------------------------|--------------------------------|

  |       |       |       |        |       |       |       |
|--------------------------------|--------------------------------|
|--------------------------------|--------------------------------|
|--------------------------------|--------------------------------|
|--------------------------------|--------------------------------|

  |       |       |       |        |       |       |       |
|--------------------------------|--------------------------------|
|--------------------------------|--------------------------------|
|--------------------------------|--------------------------------|
|--------------------------------|--------------------------------|

  |       |       |       |        |       |       |       |
|--------------------------------|--------------------------------|
|--------------------------------|--------------------------------|
|--------------------------------|--------------------------------|
|--------------------------------|3-------------------------------|

  |       |       |       |        |       |       |       |
|--------------------------------|--------------------------------|
|--------------------------------|--------------------------------|
|--------------------------------|--------------------------------|
|------------------------3-------|--------------------------------|

  |       |       |       |        |       |       |       |
|--------------------------------|--------------------------------|
|--------------------------------|--------------------------------|
|--------------------------------|2-------------------------------|
|--------------------------------|--------------------------------|

  |       |       |       |        |       |       |       |
|--------------------------------|--------------------------------|
|--------------------------------|--------------------------------|
|--------------------------------|0-----------------------2-------|
|--------------------------------|--------------------------------|

  |       |       |       |        |       |       |       |
|--------------------------------|--------------------------------|
|--------------------------------|--------------------------------|
|--------------------------------|--------------------------------|
|--------------------------------|3-------------------------------|

  |       |       |       |        |       |       |       |
|--------------------------------|--------------------------------|
|--------------------------------|--------------------------------|
|--------------------------------|--------------------------------|
|------------------------0---3---|--------------------------------|

  |       |       |       |        |       |       |       |
|--------------------------------|--------------------------------|
|--------------------------------|--------------------------------|
|--------------------------------|------------------------0-------|
|--------------------------------|3-------------------------------|

  |       |       |       |        |       |       |       |
|--------------------------------|--------------------------------|
|------------------------0-------|2-------------------------------|
|2-----------2---2---------------|------------------------2-------|
|--------------------------------|--------------------------------|

  |       |       |       |        |       |       |       |
|--------------------------------|--------------------------------|
|--------------------------------|--------------------------------|
|0-------------------------------|------------------------2-------|
|--------------------------------|--------------------------------|

  |       |       |       |        |       |       |       |
|--------------------------------|0-------------------------------|
|0-----------0---0-------0-------|--------------------------------|
|--------------------------------|--------------------------------|
|--------------------------------|--------------------------------|

  |       |       |       |        |       |       |       |
|------------------------0-------|--------------------------------|
|0---0---0-------2---------------|------------------------0-------|
|--------------------------------|--------------------------------|
|--------------------------------|------------3-------------------|

  |       |       |       |        |       |       |       |
|--------------------------------|--------------------------------|
|--------------------0---2-------|2-------------------------------|
|2-----------2-------------------|--------------------------------|
|--------------------------------|--------------------------------|

  |       |       |       |        |       |       |       |
|--------------------------------|--------------------------------|
|------------------------0-------|------------------------2-------|
|----0---------------------------|--------------------------------|
|--------------------------------|3-------------------------------|

  |       |       |       |        |       |       |       |
|--------------------------------|0-----------0-------------------|
|0-------------------------------|--------------------------------|
|--------------------------------|--------------------------------|
|--------------------------------|--------------------------------|

  |       |       |       |        |       |       |       |
|0-----------0---4-------7---9---|------------7---7---4---7---12--|
|--------------------------------|--------------------------------|
|--------------------------------|--------------------------------|
|--------------------------------|--------------------------------|

  |       |       |       |        |       |       |       |
|----9-------------------9-------|4-------7-------7---4---7---9---|
|--------------------------------|--------------------------------|
|--------------------------------|--------------------------------|
|--------------------------------|--------------------------------|

  |       |       |       |        |       |       |       |
|------------4---9---4---3---2---|--------2---0---2---------------|
|--------------------------------|--------------------------------|
|--------------------------------|--------------------------------|
|--------------------------------|--------------------------------|

  |       |       |       |        |       |       |       |
|4---2-0-----------------4---7---|9---------------7---------------|
|--------------------------------|--------------------------------|
|--------------------------------|--------------------------------|
|--------------------------------|--------------------------------|

  |       |       |       |        |       |       |       |
|--------------------4---7---9---|----7---7---4---7-----------4---|
|--------------------------------|--------------------------------|
|--------------------------------|--------------------------------|
|--------------------------------|--------------------------------|

  |       |       |       |        |       |       |       |
|----7---4-------9---7---2-------|0-------------------------------|
|----------------12--------------|--------------------------------|
|--------------------------------|--------------------------------|
|--------------------------------|--------------------------------|

  |       |       |       |        |       |       |       |
|--------------------------------|--------------------------------|
|0-------------------------------|----------------2---------------|
|--------------------------------|3-------------------------------|
|--------------------------------|--------------------------------|

  |       |       |       |        |       |       |       |
|2-------------------------------|--------------------------------|
|--------------------------------|--------------------------------|
|----------------0---------------|3-------------------------------|
|--------------------------------|--------------------------------|

  |       |       |       |        |       |       |       |
|----------------0---------------|--------------------------------|
|--------------------------------|----------------2---------------|
|--------------------------------|3-------------------------------|
|--------------------------------|--------------------------------|

  |       |       |       |        |       |       |       |
|2-------------------------------|----------------0---------------|
|------------------------3-------|--------------------------------|
|--------------------------------|3-------------------------------|
|--------------------------------|--------------------------------|

  |       |       |       |        |       |       |       |
|--------------------------------|----------------0---------------|
|----------------2-------1-------|--------------------------------|
|--------------------------------|--------------------------------|
|--------------------------------|--------------------------------|

  |       |       |       |        |       |       |       |
|--------------------------------|1-------1-----------------------|
|--------1-------1-------1-------|----------------3-------1-------|
|--------------------------------|--------------------------------|
|--------------------------------|--------------------------------|

  |       |       |       |        |       |       |       |
|--------------------------------|1-------------------------------|
|------------------------1-------|----------------1---------------|
|--------------------------------|------------------------3-------|
|--------------------------------|--------------------------------|

  |       |       |       |        |       |       |       |
|--------------------------------|------------------------0-------|
|--------3-------3-------3-0-----|----------------0---------------|
|--------------------------------|--------3-----------------------|
|--------------------------------|--------------------------------|

  |       |       |       |        |       |       |       |
|------------------------2-------|--------------------------------|
|--------3-----------------------|--------------------------------|
|--------------------------------|--------------------------------|
|--------------------------------|--------------------------------|

  |       |       |       |        |       |       |       |
|--------------------------------|--------------------------------|
|--------------------------------|------------3---3---3---3---3---|
|--------------------------------|--------------------------------|
|--------------------------------|--------------------------------|

  |       |       |       |        |       |       |       |
|0-------3-----------------------|------------------------0-------|
|--------------------------------|----------------0---------------|
|------------1-------------------|--------1---1-------------------|
|--------------------------------|--------------------------------|

  |       |       |       |        |       |       |       |
|--------------------------------|--------------------------------|
|3-----------3---3---------------|--------------------------------|
|--------------------------------|3-------0-----------------------|
|--------------------------------|------------1-------1---1-------|

  |       |       |       |        |       |       |       |
|--------------------------------|0-------0-----------------------|
|--------------------------------|--------------------------------|
|------------1-------------------|--------------------------------|
|--------------------------------|--------------------------------|

  |       |       |       |        |       |       |       |
|------------------------0-------|0-----------------------0-------|
|--------------------------------|------------2-------------------|
|3-------------------------------|--------------------------------|
|--------------------------------|--------------------------------|

  |       |       |       |        |       |       |       |
|2-----------2---2---------------|------------------------0-------|
|------------------------2-------|--------0---2---3---------------|
|----------------------------3---|0---3---------------------------|
|--------------------------------|--------------------------------|

  |       |       |       |        |       |       |       |
|0-------------------------------|--------------------------------|
|------------------------3-------|--------------------------------|
|--------------------------------|--------------------------------|
|--------------------------------|--------------------------------|

  |       |       |       |        |       |       |       |
|--------------------------------|--------------------------------|
|------------------------0-------|--------------------------------|
|--------------------------------|--------------------------------|
|----------------------------3---|--------------------------------|

  |       |       |       |        |       |       |       |
|--------------------------------|--------------------------------|
|0-----------------------3-------|--------------------------------|
|----------------------------3---|--------------------------------|
|--------------------------------|--------------------------------|

  |       |       |       |        |       |       |       |
|--------------------------------|--------------------------------|
|------------------------0-------|--------------------------------|
|3-------------------------------|--------------------------------|
|----------------------------3---|--------------------------------|

  |       |       |       |        |       |       |       |
|--------------------------------|--------------------------------|
|0-----------------------3-------|--------------------------------|
|----------------------------3---|--------------------------------|
|--------------------------------|--------------------------------|

  |       |       |       |        |       |       |       |
|--------------------------------|--------------------------------|
|------------------------0-------|--------------------------------|
|3-------------------------------|--------------------------------|
|----------------------------3---|--------------------------------|

  |       |       |       |        |       |       |       |
|--------------------------------|--------------------------------|
|0-----------------------3-------|--------------------------------|
|----------------------------3---|--------------------------------|
|--------------------------------|--------------------------------|

  |       |       |       |        |       |       |       |
|--------------------------------|--------------------------------|
|------------------------0-------|--------------------------------|
|3-------------------------------|--------------------------------|
|----------------------------3---|--------------------------------|

  |       |       |       |        |       |       |       |
|--------------------------------|--------------------------------|
|0-----------------------3-------|--------------------------------|
|----------------------------3---|--------------------------------|
|--------------------------------|--------------------------------|

  |       |       |       |        |       |       |       |
|--------------------------------|--------------------------------|
|------------------------0-------|--------------------------------|
|3-------------------------------|--------------------------------|
|----------------------------3---|--------------------------------|

  |       |       |       |        |       |       |       |
|--------------------------------|--------------------------------|
|0-----------------------3-------|--------------------------------|
|----------------------------3---|--------------------------------|
|--------------------------------|--------------------------------|

  |       |       |       |
|--------------------------------|
|--------------------------------|
|3-------------------------------|
|--------------------------------|


Created with TablEdit http://www.tabledit.com/

     
Добавлено: 29.11.2013
Другие материалы по этой песне:

Страница создана 13.11.2013
http://primanota.ru/wings/picassos-last-words-chords.htm
Привет, Гость.
Предлагаем пройти революционный курс по гитаре.
Подарок от PrimaNota.Ru, забирай!