PrimaNota.ru - самый крупный в мире бесплатный архив песенных текстов, аккордов, табулатур и нот


Wings - Goodnight Tonight - текст песни, бас-таба, видео

Регистрация Запомнить меня
Войти через:  Facebook Google Twitter Vk Yandex Mail.ru

Wings - Goodnight Tonight - текст песни, бас-таба, видео

Печатать
Просмотров: 133
Goodnight tonight

TTablEdited by Jan Bjorklund    jani_bjorklund@yahoo.se>
You are welcome to request for tabs!
Fingering and positions as suggested by TablEdit, please use common sense.



TablEdited by Jan.Bjorklund
Tuning : E A D G 	Time Signature: 4/4

  |       |       |       |        |       |       |       |
|--------7---------------7-------|--------7-----------------------|
|--------------------------------|--------------------------------|
|--------------------------------|--------------------------------|
|0---------------0---------------|0---------------0---------------|

  |       |       |       |        |       |       |       |
|--------7---------------7-------|--------7-----------------------|
|--------------------------------|--------------------------------|
|--------------------------------|--------------------------------|
|0---------------0---------------|0---------------0---------------|

  |       |       |       |        |       |       |       |
|--------7---------------7-------|--------7-----------------------|
|--------------------------------|--------------------------------|
|--------------------------------|--------------------------------|
|0---------------0---------------|0---------------0---------------|

  |       |       |       |        |       |       |       |
|--------7---------------7-------|--------12----9-----------------|
|--------------------------------|--------------------------------|
|--------------------------------|--------------------------------|
|0---------------0---------------|0-------------------------------|

  |       |       |       |        |       |       |       |
|--------------------------------|--------------------------------|
|--------------------------------|--------------------------------|
|----------------2-----------2-3-|4-------------------------------|
|0---------3-4-------------------|------------4---------------4-3-|

  |       |       |       |        |       |       |       |
|--------------------------------|------4-------------------------|
|------4---------------4---------|--------------------------------|
|--------------------------------|------------2---2-----------2-4-|
|2-----------2-------------------|--------------------------------|

  |       |       |       |        |       |       |       |
|--------------------------------|--------------------------------|
|--------------------------------|--------------------------------|
|----------------2-----------2-3-|4-------------------------------|
|0---------3-4-------------------|------------4---------------4-3-|

  |       |       |       |        |       |       |       |
|--------------------------------|------4-------------------------|
|------4---------------4---------|--------------------------------|
|--------------------------------|------------2---2-----------2-4-|
|2-----------2-------------------|--------------------------------|

  |       |       |       |        |       |       |       |
|--------------------------------|--------------------------------|
|--------------------------------|--------------------------------|
|----------------2-----------2-3-|4-------------------------------|
|0---------3-4-------------------|------------4---------------4-3-|

  |       |       |       |        |       |       |       |
|--------------------------------|------4-----------------4-------|
|------4---------------4---------|--------------------------------|
|--------------------------------|------------2---2-----------2---|
|2-----------2-------------------|--------------------------------|

  |       |       |       |        |       |       |       |
|--------------------------------|--------------------------------|
|--------------------------------|--------------------------------|
|----------------2-----------2-3-|4-------------------------------|
|0---------3-4-------------------|------------4---------------4-3-|

  |       |       |       |        |       |       |       |
|--------------------------------|------4-----------------4---4---|
|------4---------------4---------|--------------------------------|
|--------------------------------|------------2---2---------------|
|2-----------2-------------------|--------------------------------|

  |       |       |       |        |       |       |       |
|--------------------------------|--------------------------------|
|--------------------------------|--------------------------------|
|----------------2-------2-------|4-------------------------------|
|0---------3-4-------------------|------------4---------------4-3-|

  |       |       |       |        |       |       |       |
|--------------------------------|------4---------4---------------|
|------4---------------4---------|--------------------------------|
|--------------------------------|------------2-----------2-------|
|2-----------2-------------------|--------------------------------|

  |       |       |       |        |       |       |       |
|--------------------------------|--------------------------------|
|--------------------------------|--------------------------------|
|----------------------------0---|2-----2---------------2-----2---|
|0-----0---------0---------------|--------------------------------|

  |       |       |       |        |       |       |       |
|--------------------------------|--------------------------------|
|--------------------------------|--------------------------------|
|--------------------------------|----------------2-----------2-3-|
|0-------------------------------|0---------3-4-------------------|

  |       |       |       |        |       |       |       |
|--------------------------------|--------------------------------|
|--------------------------------|------4---------------4---------|
|4-------------------------------|--------------------------------|
|------------4---------------4-3-|2-----------2-------------------|

  |       |       |       |        |       |       |       |
|------4-------------------------|--------------------------------|
|--------------------------------|--------------------------------|
|------------2---2-------2-------|----------------2-----------3---|
|--------------------------------|0---------3-4-------------------|

  |       |       |       |        |       |       |       |
|--------------------------------|--------------------------------|
|--------------------------------|------4---------------4---------|
|4-------------------------------|--------------------------------|
|------------4---------------4-3-|2-----------2-------------------|

  |       |       |       |        |       |       |       |
|------4-------------4---4---4---|--------------------------------|
|--------------------------------|--------------------------------|
|------------2---2---------------|----------------2---2---2-------|
|--------------------------------|0---------3-4-------------------|

  |       |       |       |        |       |       |       |
|--------------------------------|--------------------------------|
|--------------------------------|------4---------------4---------|
|4-------------------------------|--------------------------------|
|------------4-----------4---3---|2-----------2-------------------|

  |       |       |       |        |       |       |       |
|------4-------------4---4---4---|--------------------------------|
|--------------------------------|--------------------------------|
|------------2---2---------------|--------------------------------|
|--------------------------------|0-----0-------------------------|

  |       |       |       |        |       |       |       |
|--------------------------------|--------------------------------|
|--------------------------------|--------------------------------|
|0-------------------------------|--------------------------------|
|--------------------------------|0-------------------------------|

  |       |       |       |        |       |       |       |
|2-----4-----6-------------------|--------------------------------|
|--------------------------------|--------------------------------|
|0-----0-----0-------------------|--------------------------------|
|--------------------------------|0-----0-------------------------|

  |       |       |       |        |       |       |       |
|--------------------------------|--------------------------------|
|--------------------------------|--------------------------------|
|0-------------------------------|--------------------------------|
|--------------------------------|0-------------------------------|

  |       |       |       |        |       |       |       |
|2-----4-----6-----------12------|--------------------------------|
|--------------------------------|--------------------------------|
|0-----0-----0-------------------|----------------2-------2---3---|
|--------------------------------|0---------3-4-------------------|

  |       |       |       |        |       |       |       |
|--------------------------------|--------------------------------|
|--------------------------------|------4---------------4---------|
|4-------------------------------|--------------------------------|
|------------4-----------4---3---|2-----------2-------------------|

  |       |       |       |        |       |       |       |
|------4---------4---4---4-4-----|--------------------------------|
|--------------------------------|--------------------------------|
|------------2-------------------|----------------2-----2-2---3---|
|--------------------------------|0---------3-4-------------------|

  |       |       |       |        |       |       |       |
|--------------------------------|--------------------------------|
|--------------------------------|------4---------------4---------|
|4-------------------------------|--------------------------------|
|------------4-----------4---3---|2-----------2-------------------|

  |       |       |       |        |       |       |       |
|------4-------------4---4-------|--------------------------------|
|----------------------------9---|--------------------------------|
|------------2---2---------------|----------------2-------2-------|
|--------------------------------|0-------0-3-4-------------------|

  |       |       |       |        |       |       |       |
|--------------------------------|--------------------------------|
|--------------------------------|------4---------------4---------|
|4-------------------------------|--------------------------------|
|------------4---------4-4---3---|2-----------2-------------------|

  |       |       |       |        |       |       |       |
|------4-----------------4-------|--------------------------------|
|--------------------------------|--------------------------------|
|2-----------2---2---------------|------------0---------------0---|
|--------------------------------|0-------3-3-----3---0---3-------|

  |       |       |       |        |       |       |       |
|--------------------------------|--------------------------------|
|--------------------------------|2-------------------------------|
|2-----2-----2-------2---2---4---|--------------------------------|
|--------------------------------|--------------------------------|

  |       |       |       |        |       |       |       |
|--------------------------------|--------------------------------|
|--------------------------------|--------------------------------|
|--------------------------------|------------------------0---2---|
|--------------------------------|0-----0-------------4-4---------|

  |       |       |       |        |       |       |       |
|--------------------------------|--------------------------------|
|--------------------------------|--------------------------------|
|--------------------------------|----------------------------0---|
|--------------------------------|------0-------------2-3-4-------|

  |       |       |       |        |       |       |       |
|--------------------------------|--------------------------------|
|--------------------------------|--------------------------------|
|--------------------------------|----------------------------0-2-|
|--------------------------------|0-----0-------------0-2-3-------|

  |       |       |       |        |       |       |       |
|--------------------------------|--------------------------------|
|--------------------------------|--------------------------------|
|--------------------------------|------------------------------0-|
|--------------------------------|0-----0-------------------3-4---|

  |       |       |       |        |       |       |       |
|--------------------------------|--------7---------------7-------|
|--------------------------------|--------------------------------|
|--------------------------------|--------------------------------|
|--------------------------------|0---------------0---------------|

  |       |       |       |        |       |       |       |
|--------7-----------------------|--------7---------------7-------|
|--------------------------------|--------------------------------|
|--------------------------------|--------------------------------|
|0---------------0---------------|0---------------0---------------|

  |       |       |       |        |       |       |       |
|--------7-----------------------|--------7---------------7-------|
|--------------------------------|--------------------------------|
|--------------------------------|--------------------------------|
|0---------------0---------------|0---------------0---------------|

  |       |       |       |        |       |       |       |
|--------7-----------------------|--------7---------------7-------|
|--------------------------------|--------------------------------|
|--------------------------------|--------------------------------|
|0---------------0---------------|0---------------0---------------|

  |       |       |       |        |       |       |       |
|--------11----------------------|--------------------------------|
|--------------------------------|--------------------------------|
|--------------------------------|----------------2-----------2-3-|
|0-------------------------------|0---------3-4-------------------|

  |       |       |       |        |       |       |       |
|--------------------------------|--------------------------------|
|--------------------------------|--------------------------------|
|4-------------------------------|--------------------------------|
|------------4-------------------|--------------------------------|

  |       |       |       |        |       |       |       |
|--------------------------------|--------------------------------|
|--------------------------------|--------------------------------|
|--------------------------------|--------------------------------|
|--------------------------------|--------------------------------|

  |       |       |       |        |       |       |       |
|--------------------------------|--------------------------------|
|--------------------------------|--------------------------------|
|--------------------------------|--------------------------------|
|--------------------------------|--------------------------------|

  |       |       |       |        |       |       |       |
|--------------------------------|--------------------------------|
|--------------------------------|--------------------------------|
|--------------------------------|--------------------------------|
|--------------------------------|--------------------------------|

  |       |       |       |        |       |       |       |
|--------------------------------|--------------------------------|
|--------------------------------|--------------------------------|
|--------------------------------|--------------------------------|
|--------------------------------|--------------------------------|

  |       |       |       |        |       |       |       |
|--------------------------------|--------------------------------|
|--------------------------------|--------------------------------|
|--------------------------------|--------------------------------|
|--------------------------------|--------------------------------|

  |       |       |       |        |       |       |       |
|--------------------------------|--------------------------------|
|--------------------------------|--------------------------------|
|--------------------------------|----------------2-------2---3---|
|--------------------------------|----------3-4-------------------|

  |       |       |       |        |       |       |       |
|--------------------------------|--------------------------------|
|--------------------------------|------4---------------4---------|
|4-------------------------------|--------------------------------|
|------------4-----------4---3---|2-----------2-------------------|

  |       |       |       |        |       |       |       |
|------4---------4---------------|--------------------------------|
|--------------------------------|--------------------------------|
|------------2-----------2-------|----------------2-------2---3---|
|--------------------------------|0---------3-4-------------------|

  |       |       |       |        |       |       |       |
|--------------------------------|--------------------------------|
|--------------------------------|------4---------------4---------|
|4---4---------------------------|--------------------------------|
|------------4-----------4---3---|2-----------2-------------------|

  |       |       |       |        |       |       |       |
|------4---------------4---------|--------------------------------|
|--------------------------------|--------------------------------|
|------------2---2---------------|----------------2-------2---3---|
|--------------------------------|0---------3-4-------------------|

  |       |       |       |        |       |       |       |
|--------------------------------|--------------------------------|
|--------------------------------|----4-4-------------4-4---------|
|4-------------------------------|--------------------------4-3---|
|------------4-----------4---3---|2-----------2-------------------|

  |       |       |       |        |       |       |       |
|--------4-------------4-4-------|--------------------------------|
|--------------------------------|--------------------------------|
|----------------2-----------2---|----------------2-------2---3---|
|--------------------------------|0---------3-4-------------------|

  |       |       |       |        |       |       |       |
|--------------------------------|--------------------------------|
|--------------------------------|------4---------------4---------|
|4-------------------------------|--------------------------------|
|------------4-----------4---3---|2-----------2-------------------|

  |       |       |       |        |       |       |       |
|------4-------------4---4-------|--------------------------------|
|--------------------------------|--------------------------------|
|------------2---2---------------|----------------2-------2---3---|
|--------------------------------|0---------3-4-------------------|

  |       |       |       |        |       |       |       |
|--------------------------------|--------------------------------|
|--------------------------------|------4---------------4---------|
|4-------------------------------|----------------------------2---|
|------------4-----------4---3---|2-----------2-------------------|

  |       |       |       |        |       |       |       |
|------4---------------4-4-------|--------------------------------|
|--------------------------------|--------------------------------|
|------------2---2-----------2---|----------------2-------2---3---|
|--------------------------------|0---------3-4-------------------|

  |       |       |       |        |       |       |       |
|--------------------------------|--------------------------------|
|--------------------------------|--------4-------2---------------|
|4-------------------------------|------------------------4---3---|
|------------4-----------4---3---|2-------------------------------|

  |       |       |       |        |       |       |       |
|--------------------------------|--------7---------------7-------|
|--------------------------------|--------------------------------|
|--------0-----------------------|--------------------------------|
|----------------4-------2-------|0---------------0---------------|

  |       |       |       |        |       |       |       |
|--------7-----------------------|--------7---------------7-------|
|--------------------------------|--------------------------------|
|--------------------------------|--------------------------------|
|0---------------0---------------|0---------------0---------------|

  |       |       |       |        |       |       |       |
|--------7-----------------------|--------7---------------7-------|
|--------------------------------|--------------------------------|
|--------------------------------|--------------------------------|
|0---------------0---------------|0---------------0---------------|

  |       |       |       |        |       |       |       |
|--------7-----------------------|--------7---------------7-------|
|--------------------------------|--------------------------------|
|--------------------------------|--------------------------------|
|0---------------0---------------|0---------------0---------------|

  |       |       |       |
|--------11----------------------|
|--------------------------------|
|--------------------------------|
|0-------------------------------|


Created with TablEdit http://www.tabledit.com/

     
Добавлено: 02.09.2013
Другие материалы по этой песне:
  • Аккорды и текст

Страница создана 10.03.2012
http://primanota.ru/wings/goodnight-tonight-chords.htm
Привет, Гость.
Предлагаем пройти революционный курс по гитаре.
Подарок от PrimaNota.Ru, забирай!