PrimaNota.ru - самый крупный в мире бесплатный архив песенных текстов, аккордов, табулатур и нот


Who - Young Man Blues - аккорды и текст, таба, видео

Регистрация Запомнить меня
Войти через:  Facebook Google Twitter Vk Yandex Mail.ru

Who - Young Man Blues - аккорды и текст, таба, видео

Печатать
Просмотров: 169
Young Man Blues
Who
		   From tihst3+@pitt.edu Thu May  8 14:09:08 1997



That's how I play this riff. Corrections are welcome. Don't send money.
All credits go to Frank Warnatzsch, from whom I learned this more than
a dozen of years ago.
Til


                     Riff: Young man blues (The Who)



p = pull off

  1   +   2   +   3   +   4   +     1   +   2   +   3   +   4   +
|---------------------------------|---------------------------------|
|-------------------------3---2---|-0-------------------------------|
|-------------------------4---2---|-0-------------------------------|
|---------------------2-----------|---------2p0-----0-------2p0-----|
|---------------------------------|-------------2---------------2---|
|---------------------------------|---------------------------------|

  1   +   2   +   3   +   4   +     1   +   2   +   3   +   4   +
|---------------------------------|---------------------------------|
|-------------------------3---2---|-0-------------------------------|
|-------------------------4---2---|-0-------------------------------|
|-0-------2-----------2-----------|---------2p0-----0-------2p0-----|
|---------------------------------|-------------2---------------2---|
|---------------------------------|---------------------------------|

  1   +   2   +   3   +   4   +     1   +   2   +   3   +   4   +
|---------------------------------|---------------------------------|
|-------------------------3---2---|-0-------------------------------|
|-------------------------4---2---|-0-------------------------------|
|---------------------2-----------|---------2p0-----0-------2p0-----|
|---------------------------------|-------------2---------------2---|
|-3-------0-----------------------|---------------------------------|

  1   +   2   +   3   +   4   +     1   +   2   +   3   +   4   +
|---------------------------------|---------------------------------|
|-------------------------3---2---|-0-------------------------------|
|-------------------------4---2---|-0-------------------------------|
|-0-------2-----------2-----------|---------2p0-----0-------2p0-----|
|---------------------------------|-------------2---------------2---|
|---------------------------------|---------------------------------|

  1   +   2   +   3   +   4   +     1   +   2   +   3   +   4   +
|---------------------------------|-3-------------------------------|
|---------------------------------|-3-------------------------------|
|---------------------------------|-3-------------------------------|
|---------------------------------|-2-------------------------------|
|---------------------------------|-2-------------------------------|
|-3-------0-----------------------|-0-------------------------------|

Tabbed 1997 by Tilman Heckel  tihst3+@pitt.edu>


And here come the lyrics:

Young Man Blues
(Mose Allison)
as performed by The Who


(opening riff)

Uh well the young man
Ain't got nothing in the world these days

(opening riff again)

I said the young man
ain't got nothing in the world these days

(opening riff one more time)

Uh well you know in the old days
when the young man was a strong man
All the people, they stepped back
when the young man walked by

(yet one more time...)

But you now nowadays
Its the old man, he's got all the money...
And the young man, they ain't got
nothing in the world these days, I say...

(one last rfiff and then on with the solo)

They ain't got nothing...
They got sweet fuck-all!!!

(solo)

In the old days...              *    Roger is basically
In the old days..               *    improvising (or ad-lib)
When the young man...   *    words (he's got to do
walked by...            *    something while the
They stepped BACK!      *    others are jamming!)
They stepped BACK!      *

(opening riff to end)

Nowadays if you're the young man
They ain't got nothing in the world these days, I say...
They ain't got nothing!
They got sweeeeeeeeeeet FUCK-ALL!!!!     
Добавлено: 08.12.2013
Другие материалы по этой песне:
  • Аккорды и текст

Страница создана 16.05.2012
http://primanota.ru/who/young-man-blues-chords.htm
Привет, Гость.
Предлагаем пройти революционный курс по гитаре.
Подарок от PrimaNota.Ru, забирай!