PrimaNota.ru - самый крупный в мире бесплатный архив песенных текстов, аккордов, табулатур и нот


Who - A Friend Is A Friend - таба, видео

Регистрация Запомнить меня
Войти через:  Facebook Google Twitter Vk Yandex Mail.ru

Who - A Friend Is A Friend - таба, видео

Печатать
Просмотров: 110
Open D tuning: DADADE

[intro]
  D
|-2-----------------|-2---------|-2------|-------------------------|
|-0---------0-------|-0---2p0h2-|--2p0---|--0-----0-----0------0---|
|-0------------0----|-0--4------|--------|---4p2p0-4p2p0-4p2p0-----|
|-0----------0------|-0---------|--------|-0------------------0----|
|-0------/5---------|-0---------|--------|-------------------------|
|-0-----------------|-0---------|--------|-------------------------|

When eyes meet in silence a pact can be made
---|-3------------2-------|-0-----------2-------|
---|-0------------0------0|-0-----------0-------|
---|-2------------0-------|-4-----------0---0-0-|
---|-0------------0-------|-0-----------0-------|
---|-0------------0-------|-0-----------0-------|
---|--------------0-------|-------------0-------|

|-3------------2--------|-0-----------5----|-0--------|---2--0-2---0--|
|-0------------0--------|-0-------------0--|-0--------|---0--0-0---0--|
|-2------------0--------|-4----------------|-4--------|---0--0-0---4--|
|-0------------0--------|-2----------------|-2--------|---0--0-0---2--|
|-0------------0--------|-0----------------|-0--------|-0-0--0-0---0--|
|--------------0--------|------------------|----------|-0-------------|


|---2--0--2---0--|---2--0--2---0--|-----2--0--2---0--|
|---0--0--0---0--|---0--0--0---0--|-----0--0--0---0--|
|---0--0--0---4--|---0--0--0---4--|-----0--0--0---4--|
|---0--0--0---2--|---0--0--0---2--|-----0--0--0---2--|
|---0--0--0---0--|---0--0--0---0--|-----0--0--0---0--|
|-0--------------|-0--------------|-0----------------|

[chorus]

    Be friendly,               befriend me now.
|---2--0-----2---2-0---|---2-0-2(3)-----2--0----|
|---0--0-----0---0-0---|---0-0-0(0)-----0--0----|
|---0--0-----0---0-4---|---0-0-0--------0--4----|
|---0--0-----0---0-2---|---0-0-0--------0--2----|
|-0-0--0-----0-----0---|-0-0-0-0--------0--0----|
|-0-0------------------|-0----------------------|


        Be friendly
|---2-0-2--0-----2---0---|---2-0-2-|
|---0-0-0--0-----0---0---|---0-0-0-|
|---0-0-0--0-----0---4---|---0-0-0-|
|---0-0-0--0-----0---2---|---0-0-0-|
|-0-0-0-0--0-----0---0---|-0-0-0-0-|
|-0----------------------|-0-------|


-------------|------------------|-----------|
--4------5--7|9-------7---5---4-|-2------4--|
-------------|------------------|-----------|
-------------|------------------|-----------|
--5------7--9|10------9---7---5-|-4------5--|
-------------|------------------|-----------|

----------|-------------------------|--------------|
-4-5-7----|-9----5----7-----5-----4-|-0--2---------|
----------|-------------------------|--------------|
----------|-------------------------|--------------|
-5-7-9----|-10---7----9-----7-----5-|-2--4---------|
----------|-------------------------|--------------|


-----------|------------------------------|-------|
-4----5--7-|-9---12--9--------7------5--4-|-2-----|
-----------|----0-------------------------|-------|
-----------|------------------------------|-------|
-5----7--9-|-10---------------9------7--5-|-4-----|
-----------|------------------------------|-------|


--------------|-0---0-0---|-0-----------------------|--------|
--0-----4-----|-0---0-0---|-0-----------------------|--------|
-------------4|-4------4--|-4-----------------------|--------|
--------------|--------2--|-2-----------------------|--------|
--2-----5----0|-----------|-0-----------------------|-0------|
--------------|-----------|-------------------------|-0------|

---|-3------------2-------|-0-----------2-------|
---|-0------------0------0|-0-----------0-------|
---|-2------------0-------|-4-----------0---0-0-|
---|-0------------0-------|-0-----------0-------|
---|-0------------0-------|-0-----------0-------|
---|--------------0-------|-------------0-------|

|-3------------2--------|-0-----------5-----|-0------------------|
|-0------------0--------|-0-------------0---|-0------------------|
|-2------------0--------|-4-----------------|-4------------------|
|-0------------0--------|-2-----------------|-2------------------|
|-0------------0--------|-0-----------------|-0------------------|
|--------------0--------|-------------------|--------------------|


|--------------------|--------------------|
|-0----------2-------|-0----------0----2--|
|-5----------4-------|-5----------5----4--|
|-4----------2-------|-5----------4----2--|
|-2----------0-------|-5----------2----0--|
|--------------------|-5------------------|


|--------------------|-------------------|
|-0-----------2------|-0---------0-----2-|
|-5-----------4------|-5---------5-----4-|
|-4-----------2------|-5---------4-----2-|
|-2-----------0------|-5---------2-----0-|
|--------------------|-5-----------------|

|------------------------------------|---2--0-----2----0--|
|-----------0-----------2--0---0-----|---0--0-----0----0--|
|-2---------5-----------4--5---4-----|---0--0-----0----4--|
|-5---------4-----------2--4---2-----|---0--0-----0----2--|
|-2---------2-----------4--2---0-----|---0--0-----0----0--|
|-2----------------------------------|-0------------------|
Добавлено: 06.07.2013
Другие материалы по этой песне:
  • Аккорды и текст

Страница создана 06.07.2013
http://primanota.ru/who/a-friend-is-a-friend-chords.htm
Привет, Гость.
Предлагаем пройти революционный курс по гитаре.
Подарок от PrimaNota.Ru, забирай!