PrimaNota.ru - самый крупный в мире бесплатный архив песенных текстов, аккордов, табулатур и нот


White Stripes - Though I Hear You Calling I Will Not Answer - таба, видео

Регистрация Запомнить меня
Войти через:  Facebook Google Twitter Vk Yandex Mail.ru

White Stripes - Though I Hear You Calling I Will Not Answer - таба, видео

Печатать
Просмотров: 175
Уроки эстрадного вокала в Санкт-Петербурге
Авторы музыки: Jack White
Авторы текста: Jack White
-------------------------------------------------------------------------------
Though I Hear You Calling (I Will Not Answer) - The White Stripes
-------------------------------------------------------------------------------
Tabbed by: DetroitRockCity a.k.a Kyle Landgraf
Email: klstrider@comcast.net

This is a Backside track from the blue orchid single disc.  It is just Jack playing
guitar and singing, and Meg sings at some parts (on Helium).  I have pretty much all
of it except the solo type part near the end.  This tab shows all the main guitar
parts of the song.

Tuning: Standard

 Rhythm:
                      Though I hear you calling...          I will not answer.
e|------------------2--3----3--2--3--2--0-------------------2--3----3--2--3--5--|
B|---1---1---1----------------------------------1---1---1-----------------------|
G|---2---2---2----------------------------------2—--2---2-------------------------|
D|---2---2---2----------------------------------2---2---2-----------------------|
A|------------------------------------------------------------------------------|
E|------------------------------------------------------------------------------|

Bridge:
e|-------------------------------------------------|
B|-------------------------------------------------|
G|---------------3--4--------4--4--3—1-------------|
D|----3--3--3--------------------------------------|
A|----3--3--3--------------------------------------|
E|-------------------------------------------------|

  And I Broke Your Cold...                  And I Broke Your Cold...
e|-------------------------------------------|
B|---1--1--1--1-----1--1-----3--2--3--2--0---|
G|---2--2--2--2-----2--2---------------------|
D|---2--2--2--2-----2--2---------------------|
A|-------------------------------------------|
E|-------------------------------------------|

| /  slide up
| \  slide down
| h  hammer-on
| p  pull-off
| ~  vibrato
| +  harmonic
| x  Mute note
===============================================================================
Добавлено: 24.03.2012
Другие материалы по этой песне:
  • Аккорды и текст

Страница создана 24.03.2012
http://primanota.ru/white-stripes/though-i-hear-you-calling-i-will-not-answer-chords.htm
Привет, Гость.
Предлагаем пройти революционный курс по гитаре.
Подарок от PrimaNota.Ru, забирай!