PrimaNota.ru - самый крупный в мире бесплатный архив песенных текстов, аккордов, табулатур и нот


White Stripes - Blue Orchid - текст песни, таба, бас-таба, драм-таба, видео

Регистрация Запомнить меня
Войти через:  Facebook Google Twitter Vk Yandex Mail.ru

White Stripes - Blue Orchid - текст песни, таба, бас-таба, драм-таба, видео

Печатать
Просмотров: 1273
Авторы музыки: Jack White
Авторы текста: Jack White
The White Stripes - Blue Orchid
From The Album Get Behind Me Satan

Tab written by Jared Chappell
_____________________________________________________________


Tuning - E A D G B E (Standard)

~ - vibrato
b - bend
/ - slide
___________________________________________

Intro

Note: The guitar effect used throughout the song creates an extra
note one octave down and one octave up from the source.
Jack White also uses doubling and distortion during the song.

/                                                    \
E-------------|-------------|------------|------------|
B-------------|-------------|------------|------------|
G-------------|-------------|------------|------------|
D-------------|-------------|------------|-------3--5-|
A-----------1-|-------------|----------1-|-3--5-------|
E--3----1-3---|-1-----------|-3----1-3---|------------|
\                                                    /

/                                                      \
E-------------|-------------|------------|--------------|
B-------------|-------------|------------|--------------|
G-------------|-------------|------------|--------------|
D-------------|-------------|------------|-------3--0-3-|
A-----------1-|-----------1-|----------1-|-3--5---------|
E--3----1-3---|-1-----1-3---|-3----1-3---|--------------|
\                                                      /

Verse

/                                                    \
E-------------|-------------|------------|------------|
B-------------|-------------|------------|------------|
G-------------|-------------|------------|------------|
D-5-----------|-------------|------------|-------3--5-|
A-----------1-|-------------|----------1-|-3--5-------|
E---3---1-3---|-1-----------|-3----1-3---|------------|
\                                                    /

/                                                    \
E-------------|-------------|------------|------------|
B-------------|-------------|------------|------------|
G-------------|-------------|------------|------------|
D-------------|-------------|------------|-------3--5-|
A-----------1-|-----------1-|----------1-|-3--5-------|
E--3----1-3---|-1-----1-3---|-3----1-3---|------------|
\                                                    /

/                                                      \
E-------------|-------------|------------|--------------|
B-------------|-------------|------------|--------------|
G-------------|-------------|------------|--------------|
D-------------|-------------|------------|-------3--0-3-|
A-----------1-|-------------|----------1-|-3--5---------|
E--3----1-3---|-1-----------|-3----1-3---|--------------|
\                                                      /

/                                                      \
E-------------|-------------|------------|--------------|
B-------------|-------------|------------|--------------|
G-------------|-------------|------------|--------------|
D-5-----------|-------------|------------|-------3--0-3-|
A-----------1-|-----------1-|----------1-|-3--5---------|
E---3---1-3---|-1-----1-3---|-3----1-3---|--------------|
\                                                      /

Chorus

/                                                             \
E-----------------|---------------|---------------|------------|
B-----------------|---------------|---------------|------------|
G-----------------|---------------|---------------|------------|
D-5---------------|---------------|---------------|------------|
A-------3b(4)b3-1-|-----3b(4)b3-1-|-----3b(4)b3-1-|------------|
E---3-------------|-1-------------|-3-------------|-1--1--1--1-|
\                                                             /

/                                                             \
E-----------------|---------------|---------------|------------|
B-----------------|---------------|---------------|------------|
G------5b(7)b5-3--|-----5b(7)b5-3-|-----5b(7)b5-3-|------------|
D-----------------|-3-------------|-5-------------|-3--3--3--3-|
A-----------------|---------------|---------------|------------|
E--3--------------|---------------|---------------|------------|
\                                                             /

/                                                             \
E-----------------|---------------|---------------|------------|
B-----------------|---------------|---------------|------------|
G------5b(7)b5-3--|-----5b(7)b5-3-|-----5b(7)b5-3-|------------|
D--5--------------|-3-------------|-5-------------|-3--3--3--3-|
A-----------------|---------------|---------------|------------|
E-----------------|---------------|---------------|------------|
\                                                             /

/                                                             \
E-----------------|---------------|---------------|------------|
B-----------------|---------------|---------------|------------|
G------5b(7)b5-3--|-----5b(7)b5-3-|-----5b(7)b5-3-|------------|
D--5--------------|-3-------------|-5-------------|-3--3--3--3-|
A-----------------|---------------|---------------|------------|
E-----------------|---------------|---------------|------------|
\                                                             /

2nd Chorus

/                                                             \
E-----------------|---------------|---------------|------------|
B-----------------|---------------|---------------|------------|
G-----------------|---------------|---------------|------------|
D-5---------------|---------------|---------------|------------|
A-------3b(4)b3-1-|-----3b(4)b3-1-|-----3b(4)b3-1-|------------|
E---3-------------|-1-------------|-3-------------|-1--1--1--1-|
\                                                             /

/                                                             \
E-----------------|---------------|---------------|------------|
B-----------------|---------------|---------------|------------|
G------5b(7)b5-3--|-----5b(7)b5-3-|-----5b(7)b5-3-|------------|
D-----------------|-3-------------|-5-------------|-3--3--3--3-|
A-----------------|---------------|---------------|------------|
E--3--------------|---------------|---------------|------------|
\                                                             /

/                                        \
E---------------------|-------------------|
B---------------------|-------------------|
G-/12~--17b(18)b17-15-|-----17b(18)b17-15-|
D---------------------|-15----------------|
A---------------------|-------------------|
E---------------------|-------------------|
\                                        /

/                                   \
E-------------------|----------------|
B-------------------|----------------|
G-----17b(18)b17-15-|----------------|
D-17~---------------|-15--15--15--15-|
A-------------------|----------------|
E-------------------|----------------|
\                                   /

/                                       \
E--------------------|-------------------|
B--------------------|-------------------|
G-17~--17b(18)b17-15-|-----17b(18)b17-15-|
D--------------------|-15----------------|
A--------------------|-------------------|
E--------------------|-------------------|
\                                       /

/                                   \
E-------------------|----------------|
B-------------------|----------------|
G-----17b(18)b17-15-|----------------|
D-17~---------------|-15--15--15--15-|
A-------------------|----------------|
E-------------------|----------------|
\                                   /


Ending

/                                                    \
E-------------|-------------|------------|------------|
B-------------|-------------|------------|------------|
G-------------|-------------|------------|------------|
D-5-----------|-------------|------------|-------3--5-|
A-----------1-|-----------1-|----------1-|-3--5-------|
E---3---1-3---|-1-----1-3---|-3----1-3---|------------|
\                                                    /

/                                                    \
E-------------|-------------|------------|------------|
B-------------|-------------|------------|------------|
G-------------|-------------|------------|------------|
D-------------|-------------|------------|-------3--5-|
A-----------1-|-------------|----------1-|-3--5-------|
E--3----1-3---|-1-----------|-3----1-3---|------------|
\                                                    /

And it ends ... or does it?

As the octave effect used in this song might not be avaliable to everyone, I thought I 
tab it using power chords for those people who:
a) Don't have an octave effect available
b) Thought it sounded shit because their effect wasn't good enough (eg. me -   my 
unit is not quite up to standard)

So here goes - the sections below should be substituted for their namesakes in the tab above.

Intro

/                                                    \
E-------------|-------------|------------|------------|
B-------------|-------------|------------|-------6--8-|
G-----------3-|-------------|----------3-|-5--7--5--7-|
D--5----3-5-3-|-3-----------|-5----3-5-3-|-5--7--3--5-|
A--5----3-5-1-|-3-----------|-5----3-5-1-|-3--5-------|
E--3----1-3---|-1-----------|-3----1-3---|------------|
\                                                    /

/                                                      \
E-------------|-------------|------------|--------------|
B-------------|-------------|------------|-------6------|
G-----------3-|-----------3-|----------3-|-5--7--5------|
D--5----3-5-3-|-3-----3-5-3-|-5----3-5-3-|-5--7--3--0-3-|
A--5----3-5-1-|-3-----3-5-1-|-5----3-5-1-|-3--5---------|
E--3----1-3---|-1-----1-3---|-3----1-3---|--------------|
\                                                      /

Verse

/                                                    \
E-------------|-------------|------------|------------|
B-------------|-------------|------------|-------6--8-|
G-----------3-|-------------|----------3-|-5--7--5--7-|
D-5-5---3-5-3-|-3-----------|-5----3-5-3-|-5--7--3--5-|
A---5---3-5-1-|-3-----------|-5----3-5-1-|-3--5-------|
E---3---1-3---|-1-----------|-3----1-3---|------------|
\                                                    /

/                                                    \
E-------------|-------------|------------|------------|
B-------------|-------------|------------|-------6--8-|
G-----------3-|-----------3-|----------3-|-5--7--5--7-|
D---5---3-5-3-|-3-----3-7-3-|-5----3-5-3-|-5--7--3--5-|
A---5---3-5-1-|-3-----3-7-1-|-5----3-5-1-|-3--5-------|
E---3---1-3---|-1-----1-5---|-3----1-3---|------------|
\                                                    /

/                                                      \
E-------------|-------------|------------|--------------|
B-------------|-------------|------------|-------6------|
G-----------3-|-------------|----------3-|-5--7--5------|
D--5----3-5-3-|-3-----------|-5----3-5-3-|-5--7--3--0-3-|
A--5----3-5-1-|-3-----------|-5----3-5-1-|-3--5---------|
E--3----1-3---|-1-----------|-3----1-3---|--------------|
\                                                      /

/                                                       \
E--------------|-------------|------------|--------------|
B--------------|-------------|------------|-------6------|
G------------3-|-----------3-|----------3-|-5--7--5------|
D-5-5----3-5-3-|-3-----3-7-3-|-5----3-5-3-|-5--7--3--0-3-|
A---5----3-5-1-|-3-----3-7-1-|-5----3-5-1-|-3--5---------|
E---3----1-3---|-1-----1-5---|-3----1-3---|--------------|
\                                                       /

Chorus

/                                                             \
E-----------------|---------------|---------------|------------|
B-----------------|---------------|---------------|------------|
G-----------------|---------------|---------------|------------|
D-5-5-------------|-3-------------|-5-------------|-3--3--3--3-|
A---5---3b(4)b3-1-|-3---3b(4)b3-1-|-5---3b(4)b3-1-|-3--3--3--3-|
E---3-------------|-1-------------|-3-------------|-1--1--1--1-|
\                                                             /

/                                                             \
E-----------------|---------------|---------------|------------|
B-----------------|-6-------------|-8-------------|-6--6--6--6-|
G------5b(7)b5-3--|-5---5b(7)b5-3-|-7---5b(7)b5-3-|-5--5--5--5-|
D--5--------------|-3-------------|-5-------------|-3--3--3--3-|
A--5--------------|---------------|---------------|------------|
E--3--------------|---------------|---------------|------------|
\                                                             /

/                                                             \
E-----------------|---------------|---------------|------------|
B-----------------|-6-------------|-8-------------|-6--6--6--6-|
G------5b(7)b5-3--|-5---5b(7)b5-3-|-7---5b(7)b5-3-|-5--5--5--5-|
D--5--------------|-3-------------|-5-------------|-3--3--3--3-|
A--5--------------|---------------|---------------|------------|
E--3--------------|---------------|---------------|------------|
\                                                             /

/                                                             \
E-----------------|---------------|---------------|------------|
B-----------------|-6-------------|-8-------------|-6--6--6--6-|
G------5b(7)b5-3--|-5---5b(7)b5-3-|-7---5b(7)b5-3-|-5--5--5--5-|
D--5--------------|-3-------------|-5-------------|-3--3--3--3-|
A--5--------------|---------------|---------------|------------|
E--3--------------|---------------|---------------|------------|
\                                                             /

2nd Chorus

/                                                             \
E-----------------|---------------|---------------|------------|
B-----------------|---------------|---------------|------------|
G-----------------|---------------|---------------|------------|
D-5-5-------------|-3-------------|-5-------------|-3--3--3--3-|
A---5---3b(4)b3-1-|-3---3b(4)b3-1-|-5---3b(4)b3-1-|-3--3--3--3-|
E---3-------------|-1-------------|-3-------------|-1--1--1--1-|
\                                                             /

/                                                             \
E-----------------|---------------|---------------|------------|
B-----------------|-6-------------|-8-------------|-6--6--6--6-|
G------5b(7)b5-3--|-5---5b(7)b5-3-|-7---5b(7)b5-3-|-5--5--5--5-|
D--5--------------|-3-------------|-5-------------|-3--3--3--3-|
A--5--------------|---------------|---------------|------------|
E--3--------------|---------------|---------------|------------|
\                                                             /

/                                        \
E---------------------|-------------------|
B---------------------|-------------------|
G-/12~--17b(18)b17-15-|-----17b(18)b17-15-|
D---------------------|-15----------------|
A---------------------|-------------------|
E---------------------|-------------------|
\                                        /
/                                   \
E-------------------|----------------|
B-------------------|----------------|
G-----17b(18)b17-15-|----------------|
D-17~---------------|-15--15--15--15-|
A-------------------|----------------|
E-------------------|----------------|
\                                   /

/                                       \
E--------------------|-------------------|
B--------------------|-------------------|
G-17~--17b(18)b17-15-|-----17b(18)b17-15-|
D--------------------|-15----------------|
A--------------------|-------------------|
E--------------------|-------------------|
\                                       /

/                                   \
E-------------------|----------------|
B-------------------|----------------|
G-----17b(18)b17-15-|----------------|
D-17~---------------|-15--15--15--15-|
A-------------------|----------------|
E-------------------|----------------|
\                                   /

Ending

/                                                    \
E-------------|-------------|------------|------------|
B-------------|-------------|------------|-------6--8-|
G-----------3-|-----------3-|----------3-|-5--7--5--7-|
D-5-5---3-5-3-|-3-----3-5-3-|-5----3-5-3-|-5--7--3--5-|
A---5---3-5-1-|-3-----3-5-1-|-5----3-5-1-|-3--5-------|
E---3---1-3---|-1-----1-3---|-3----1-3---|------------|
\                                                    /

/                                                    \
E-------------|-------------|------------|------------|
B-------------|-------------|------------|-------6--8-|
G-----------3-|-------------|----------3-|-5--7--5--7-|
D--5----3-5-3-|-3-----------|-5----3-5-3-|-5--7--3--5-|
A--5----3-5-1-|-3-----------|-5----3-5-1-|-3--5-------|
E--3----1-3---|-1-----------|-3----1-3---|------------|
\                                                    /

*Order Of Sections*

Intro x1
Verse x1
Chorus x1
Verse x1
2nd Chorus x1
Intro x1
Ending x1
Добавлено: 31.10.2013
Другие материалы по этой песне:

Страница создана 04.03.2012
http://primanota.ru/white-stripes/blue-orchid-chords.htm
Привет, Гость.
Предлагаем пройти революционный курс по гитаре.
Подарок от PrimaNota.Ru, забирай!