PrimaNota.ru - самый крупный в мире бесплатный архив песенных текстов, аккордов, табулатур и нот


White Stripes - Dead Leaves & The Dirty Ground Accurate! - таба, видео

Регистрация Запомнить меня
Войти через:  Facebook Google Twitter Vk Yandex Mail.ru

White Stripes - Dead Leaves & The Dirty Ground Accurate! - таба, видео

Печатать
Просмотров: 141
Уроки эстрадного вокала в Санкт-Петербурге
e|------------------------------------------
b|------------------------------------------
g|------------------------------------------
d|---------------------------------------2-2
a|---------------------------------------0-0
E|-----------5-5-5-0-3-3-3-0-2-2-0-1-1-0----



Solo before you start singing
                                   
e|---------------------------------------------------
b|---------3-2--------------------------------------2
g|----------------------------0--------0-------0---2-
d|------2------------------0---------2-----0-4----2--
a|----0--------0------0-2----------3-----3-------0---
E|---------------0-2------------0--------------------

e|---------------------------------------------------
b|---------3-2-------------------0-------------------2
g|----------------------------0---------0-------0---2-
d|------2------------------0----------2-----0-4----2--
a|----0--------0------0-2-----------3-----3-------0---
E|---------------0-2--------------0--------------------

A                   G                   C           D   A
Dead leaves and the dirty ground when i know you're not around...


HEAVY PART 
                         
e|--------------------------------------------------
b|--------------------------------------------------
g|--------------------------------------------------
d|--7- x---x--7---x---x----5--x---x---5--x---x------
a|--7- x---x--7---x---x----5--x---x---5--x---x------
E|--5-<5>-<5>-5--<5>-<5>---3-<3>-<3>--3-<3>-<3>-----

                 
e|--------------------------------------------------
b|--------------------------------------------------
g|--5-5-----7-7-------------------------------------
d|--5-5-----7-7-----7-------------------------------X2
a|--3-3-----5-5-----7-------------------------------
E|------------------5-------------------------------


(slight change here)
e|--------------------------------------------------
b|--------------------------------------------------
g|--------------------------------------------------
d|--------------------------------------------------
a|--------------------------------------------------
E|--5---3---2--1---5------3-- back into verse ------


HEAVY PART x 2

(first part X2)

 
This part, beginning at "I didn't feel so bad till the sun came down..."
                            
e|---------------------------|----------------------
b|---------------------------|----------------------
g|--7-7-7-7-7-7-7-7----------|----------------------x2
d|--7-7-7-7-7-7-7-7----------|7-7-7-7-----5---------
a|--5-5-5-5-5-5-5-5----------|7-7-7-7-----5---------
E|---------------------------|5-5-5-5-----3---------

                                   
e|--------------------------------------------------
b|--------------------------------------------------
g|--7-7-7-7-7-7-7-7---------------------------------
d|--7-7-7-7-7-7-7-7----7-7-7-7-7-----5-5-5-5-5------
a|--5-5-5-5-5-5-5-5----7-7-7-7-7-----5-5-5-5-5------
E|---------------------5-5-5-5-5-----3-3-3-3-3------


e|--------------------------------------------------
b|--------------------------------------------------
g|--------------------------------------------------
d|--------------------------------------------------
a|--------------------------------------------------
E|--5---3---2--1---5------3-- back into verse ------

Play solo, or some variation of it
Добавлено: 20.06.2013
Другие материалы по этой песне:
  • Аккорды и текст

Страница создана 20.06.2013
http://primanota.ru/white-stripes/dead-leaves-and-dirty-ground-accurate-chords.htm
Привет, Гость.
Предлагаем пройти революционный курс по гитаре.
Подарок от PrimaNota.Ru, забирай!