PrimaNota.ru - самый крупный в мире бесплатный архив песенных текстов, аккордов, табулатур и нот


White Lies - Is Love - текст песни, таба, видео

Регистрация Запомнить меня
Войти через:  Facebook Google Twitter Vk Yandex Mail.ru

White Lies - Is Love - текст песни, таба, видео

Печатать
Просмотров: 42
-------------------------------------------------------------------------------
                              IS LOVE - White Lies                            
-------------------------------------------------------------------------------
Is Love
White Lies
From the album: Ritual (2011)
Tabbed by egg-marteeni
13 January 2016

Tuning: Standard (EADGBe)


CHORUS

e|---------------------------------------------------------------------------|
B|---------------------------------------------------------------------------|
G|-------------------------------------7-7-----7-7-----7-7-----7-7-----------|
D|-3-3-3-3-3-3-3-3-3-3-3-3-5-5-5-5---7-7-7---7-7-7---7-7-7---7-7-7-----------|
A|-3-3-3-3-3-3-3-3-3-3-3-3-5-5-5-5---5-5-5---5-5-5---5-5-5---5-5-5-----------|
E|-1-1-1-1-1-1-1-1-1-1-1-1-3-3-3-3-------------------------------------------|

BRIDGE

e|-5-------3-------5-------3-------5-------3-------5-------3-----------------|
B|-5-------5-------5-------5-------6-------5-------6-------5-----------------|
G|-5-------5-------5-------5-------7-------5-------7-------5-----------------|
D|-7-------5-------7-------5-------7-------5-------7-------5-----------------|
A|-7-------3-------7-------3-------5-------3-------5-------3-----------------|
E|-5---------------5---------------------------------------------------------|

OUTRO (SAME AS CHORUS)

e|---------------------------------------------------------------------------|
B|---------------------------------------------------------------------------|
G|-------------------------------------7-7-----7-7-----7-7-----7-7-----------|
D|-3-3-3-3-3-3-3-3-3-3-3-3-5-5-5-5---7-7-7---7-7-7---7-7-7---7-7-7-----------|
A|-3-3-3-3-3-3-3-3-3-3-3-3-5-5-5-5---5-5-5---5-5-5---5-5-5---5-5-5-----------|
E|-1-1-1-1-1-1-1-1-1-1-1-1-3-3-3-3-------------------------------------------|
Добавлено: 30.05.2016
Другие материалы по этой песне:
  • Аккорды и текст

Страница создана 04.12.2013
http://primanota.ru/white-lies/is-love-chords.htm
Привет, Гость.
Предлагаем пройти революционный курс по гитаре.
Подарок от PrimaNota.Ru, забирай!