PrimaNota.ru - самый крупный в мире бесплатный архив песенных текстов, аккордов, табулатур и нот


Wes Montgomery - Bock To Bock - таба, видео

Регистрация Запомнить меня
Войти через:  Facebook Google Twitter Vk Yandex Mail.ru

Wes Montgomery - Bock To Bock - таба, видео

Печатать
Просмотров: 52
"Bock To Bock" by Wes Montgomery
Tabbed by Tim Cardiello

Db Minor Blues (Swing)

E|------------------|----------------------|
B|--5---------------|------------------5-7-|
G|----6-------------|----------------6-----|
D|------6---4-------|-4-h5p4----/6---------|
A|--------7---7---7-|--------7-------------|
E|------------------|----------------------|
                     (   slur )  
E|------7----------------|--------------|
B|--7/9---9-7-5-h7p5-----|-------5---7~~|
G|-------------------6---|-4--6---------|
D|---------------------6-|-----------4~~|
A|-----------------------|--------------|
E|-----------------------|--------------|
             (  slur  )
E|-----------------|--------------------|
B|--5--------------|----------------4-5-|
G|----6------------|------------5h6-----|
D|------6----------|--------------------|
A|--------7-6-4--6-|-7-p6p4--7----------|
E|-----------------|--------------------|

E|-----------------|-----------|
B|-----------------|--------4--|
G|--6---------5/6--|--------5--|
D|----7-5-6--------|--------5--|
A|-----------------|--------4--|
E|-----------------|-----------|

B Section:

E|-----7--9--|-9---9---9-|
B|--9--------|-7---6---6-|
G|-----4--6--|-8---8---8-|
D|--6--------|-9---9---9-|
A|-----------|-----------|
E|-----------|-----------|

E|---7--9---|------------|
B|-9--------|-6---4---4--|
G|---4--6---|-6---6---6--|
D|-6--------|-8---8---8--|
A|----------|------------|
E|----------|------------| 

E|------9--11--|--11--11--11--|
B|--11---------|--9---10--11--|
G|------6--8---|--10--10--10--|
D|--8----------|--11--11--11--|
A|-------------|--------------|
E|-------------|--------------|

E|-------------------------|-----4--|
B|-------------------------|-----5--|
G|------------4-7p6---5----|-----5--|
D|------4-5-7-------7---6--|-----4--|
A|--6h7--------------------|--------|
E|-------------------------|--------|


Chords:
                 Turn around #1
E|--4---5---4---|------------------------|
B|--5---5---4---|-7---5--8----7----5-----|
G|--6---6---5---|-6---6--7----6----5-----|
D|--6---5---4---|-8---7--6----5----4-----|
A|--4---7---6---|------------------------|
E|------5---4---|------------------------|
   Dbm  A7  Ab7   Gb  A  Bb13 B13  Ab#5


Turn around #2:

E|--2-------------------|
B|--4---5--2--2---4-----|
G|--3---6--3--3---3-----|
D|--4---7--4--4---2-----|
A|----------------4-----|
E|----------------------|
   Ebm  A  Gb   Dbm6/9



TAP YOUR FOOT!!!


h = hammer on
p = pull off
/ = slide forwards
\ = slide backwards
Добавлено: 14.11.2015
Другие материалы по этой песне:
  • Аккорды и текст

Страница создана 14.11.2015
http://primanota.ru/wes-montgomery/bock-to-bock-chords.htm
Привет, Гость.
Предлагаем пройти революционный курс по гитаре.
Подарок от PrimaNota.Ru, забирай!