PrimaNota.ru - самый крупный в мире бесплатный архив песенных текстов, аккордов, табулатур и нот


Wes Montgomery - In Your Own Sweet Way - аккорды и текст, видео

Регистрация Запомнить меня
Войти через:  Facebook Google Twitter Vk Yandex Mail.ru

Wes Montgomery - In Your Own Sweet Way - аккорды и текст, видео

Печатать
Просмотров: 182
Уроки эстрадного вокала в Санкт-Петербурге
Авторы музыки: Dave Brubeck

In Your Own Sweet Way
Wes Montgomery

---10----10--10---8--6--6-------10--11--13--11--10--6----8--10----6--8--10--
----8-----8---8------6--5-------10--11--11--11------6--------8----6--8--10--
----8-----8---8------6--6-------10--11--11--11------6--------8----6--8--10--
----8-----8---7------5--5--------9--10--10--10------5--------7----4--7---9--
----------------------------------------------------------------------------
----------------------------------------------------------------------------
                                                                              

--8--6--5--3--5----8--1----5--3----3--3----1-----------7--------------------
--8--6--5--3--5-------1----5--3----3--3----1---------8----------------------
--8--6--5--3--5-------1----5--3----3--3----1-------7------------------------
--7--5--4--2--3-------0----3--2----2--1----0-----7--------------------------
-----------------------------------------------7----------------------------
----------------------------------------------------------------------------

Добавлено: 19.01.2014
Другие материалы по этой песне:

Страница создана 21.03.2012
http://primanota.ru/wes-montgomery/in-your-own-sweet-way-chords.htm
Привет, Гость.
Предлагаем пройти революционный курс по гитаре.
Подарок от PrimaNota.Ru, забирай!